Song name
# A B C D E F G H I J K L M N O P Q R S T U V W X Y Z

Alan Sorrenti - Figli Delle Stelle tab

Tabbed By Andrea  Albero


Hi guys, this is my first tab, and I think its full correct, but obv I'm open to all 
possibles... :P
I hope u find that tab NOT useless :)

Bye Bye!


Ps: this song... rocks! :P


Legenda:


s  = slide
h  = hammer on
vv = tremolo
so = slide off


---12--12-12--12-12-------15---13---12--12-12--12-12------------------12--12-12--12-12-------15---13--|
--------------------13s15-------------------------------------12-14--------------------13s15----------|
------------------------------------------------------11h13-------------------------------------------|
------------------------------------------------------------------------------------------------------|
------------------------------------------------------------------------------------------------------|
------------------------------------------------------------------------------------------------------|

----12--12-12--12-12--------------------------12--12-12--12-12----------15---13---12--12-12--12-12----|
-------------------------------14-------14-----------------------13s15--------------------------------|
----------------------11-13-11----13-11---------------------------------------------------------------|
------------------------------------------------------------------------------------------------------|
------------------------------------------------------------------------------------------------------|
------------------------------------------------------------------------------------------------------|

----------------------------12--12-12--12-12---------15---13---12---15---19vv(so)---------------------|
------12-----14-----12-15---------------------13s15---------------------------------------------------|
---11----11-----11------------------------------------------------------------------------------------|
------------------------------------------------------------------------------------------------------|
------------------------------------------------------------------------------------------------------|
------------------------------------------------------------------------------------------------------|
Tap to rate this tab
# A B C D E F G H I J K L M N O P Q R S T U V W X Y Z