Song name
# A B C D E F G H I J K L M N O P Q R S T U V W X Y Z

Alana Davis - 32 Flavors tab

standard tuning

Riff 2 is used right before she starts singing and right afer she's finshed finshed a verse/chorus.

Riff 1:
E|0--2-----1---------2--7--4--2--4----------|
B|------4----3--2p0-----------------4--2p0--|
G|2-----------------------------------------|
D|-------------------4-----2----------------|
A|------4-----------------------------------|
E|------------------------------------------|

Riff 2:
E|--4--2--4------4--2--4--2--4----------|
B|------------------------------4--2p0--|
G|--------------------------------------|
D|--2---------2--2----------------------|
A|--------------------------------------|
E|--------------------------------------|
Tap to rate this tab
# A B C D E F G H I J K L M N O P Q R S T U V W X Y Z