Song name
# A B C D E F G H I J K L M N O P Q R S T U V W X Y Z

Albert Hammond Jr - Well All Right tab

By: Akonite

Intro
Guitar 1 (x2)
e|---------------------------------------|
B|---------------------------------------|
G|---------------------------------------|
D|-----4---4---3---4----------4---3---4--|
A|-4-6------------------4-6-4------------|
E|---------------------------------------| 

Guitar 2 (x2)
e|------6---4---6-------------6---4---6---|
B|-----7---5---7-7-----------7---6---7-7--|
G|----6---4---6-------------6---6---6-----|
D|----------------------------------------|
A|----------------------------------------|
E|----------------------------------------|

Verse
Guitar 1 (x4)
e|----------------------------|
B|----------------------------|
G|-111111-1111-999-99-111111--|
D|-111111-1111-999-99-111111--|
A|--9-9-9--9-9-777-77--9-9-9--|
E|----------------------------|

Guitar 2 (x4)
e|------6---4---6-------------6---4---6---|
B|-----7---5---7-7-----------7---6---7-7--|
G|----6---4---6-------------6---6---6-----|
D|----------------------------------------|
A|----------------------------------------|
E|----------------------------------------|

Chorus
Guitar 1 (x2)
e|-------------------------------------------------|
B|-------------------------------------------------|
G|-444-44-444-44-666-66-666-66---------------------|
D|-444-44-444-44-666-66-666-66-444-44-222-22-4444--|
A|-222-22-222-22-444-44-444-44-444-44-222-22-4444--|
E|-----------------------------222-22-000-00-2222--|

Guitar 2 (x2)
e|-----14----14--13-------------6---4---6----------|
B|---14------14--14------------7---6---7-7---------|
G|-15-------------------------6---6---6------------|
D|-------------------------------------------------|
A|-------------------------------------------------|
E|-------------------------------------------------|

Guitar 1 (x2)
e|---------------------------------------|
B|---------------------------------------|
G|---------------------------------------|
D|-----4---4---3---4----------4---3---4--|
A|-4-6------------------4-6-4------------|
E|---------------------------------------| 

Guitar 2 (x2)
e|------6---4---6-------------6---4---6---|
B|-----7---5---7-7-----------7---6---7-7--|
G|----6---4---6-------------6---6---6-----|
D|----------------------------------------|
A|----------------------------------------|
E|----------------------------------------|

Verse
Guitar 1 (x4)
e|----------------------------|
B|----------------------------|
G|-111111-1111-999-99-111111--|
D|-111111-1111-999-99-111111--|
A|--9-9-9--9-9-777-77--9-9-9--|
E|----------------------------|

Guitar 2 (x4)
e|------6---4---6-------------6---4---6---|
B|-----7---5---7-7-----------7---6---7-7--|
G|----6---4---6-------------6---6---6-----|
D|----------------------------------------|
A|----------------------------------------|
E|----------------------------------------|

Chorus
Guitar 1 (x2)
e|-------------------------------------------------|
B|-------------------------------------------------|
G|-444-44-444-44-666-66-666-66---------------------|
D|-444-44-444-44-666-66-666-66-444-44-222-22-4444--|
A|-222-22-222-22-444-44-444-44-444-44-222-22-4444--|
E|-----------------------------222-22-000-00-2222--|

Guitar 2 (x2)
e|-----14----14--13-------------6---4---6----------|
B|---14------14--14------------7---6---7-7---------|
G|-15-------------------------6---6---6------------|
D|-------------------------------------------------|
A|-------------------------------------------------|
E|-------------------------------------------------|

Guitar 1 (x4)
e|---------------------------------------|
B|---------------------------------------|
G|---------------------------------------|
D|-----4---4---3---4----------4---3---4--|
A|-4-6------------------4-6-4------------|
E|---------------------------------------| 

Guitar 2 (x4)
e|------6---4---6-------------6---4---6---|
B|-----7---5---7-7-----------7---6---7-7--|
G|----6---4---6-------------6---6---6-----|
D|----------------------------------------|
A|----------------------------------------|
E|----------------------------------------|

Chorus
Guitar 1 (x2)
e|-------------------------------------------------|
B|-------------------------------------------------|
G|-444-44-444-44-666-66-666-66---------------------|
D|-444-44-444-44-666-66-666-66-444-44-222-22-4444--|
A|-222-22-222-22-444-44-444-44-444-44-222-22-4444--|
E|-----------------------------222-22-000-00-2222--|

Guitar 2 (x2)
e|-----14----14--13-------------6---4---6----------|
B|---14------14--14------------7---6---7-7---------|
G|-15-------------------------6---6---6------------|
D|-------------------------------------------------|
A|-------------------------------------------------|
E|-------------------------------------------------|

Outro
Guitar 1 
e|---------------------------------------|
B|---------------------------------------|
G|---------------------------------------|
D|-----4---4---3---4----------4---3---4--|
A|-4-6------------------4-6-4------------|
E|---------------------------------------| 

e|---------------------------------------|
B|---------------------------------------|
G|---------------------------------------|
D|-----4---4---3------11-11-11-11--------|
A|-4-6-----------------9--9--9--9--------|
E|---------------------------------------| 

Guitar 2 
e|------6---4---6-------------6---4---6---|
B|-----7---5---7-7-----------7---6---7-7--|
G|----6---4---6-------------6---6---6-----|
D|----------------------------------------|
A|----------------------------------------|
E|----------------------------------------|

e|------6---4---6-----14-13--14-14-14-14--|
B|-----7---5---7-7----14-14--14-14-14-14--|
G|----6---4---6---------------------------|
D|----------------------------------------|
A|----------------------------------------|
E|----------------------------------------|


Ng-Muk-yuen
Tap to rate this tab
 
# A B C D E F G H I J K L M N O P Q R S T U V W X Y Z