Song name
# A B C D E F G H I J K L M N O P Q R S T U V W X Y Z

Alejandro Sanz - Amiga Mia tab

-------------------------------------------------------------------------------
		Amiga Mia - Alejandro Sanz (Only Intro/Bridges)
-------------------------------------------------------------------------------
Tabbed by: Daniel Cohen Gindi
Email: dcgsmix@gmx.net

Tuning: eBGDAE

Nobody has never tabbed the intro/bridges of this beautiful song, so I just did it.
You can find the chords of the song all over the internet. :-)

Have fun!

e|-------------------|------------------|-------------------|---------------|
B|-2-----2---------2-|---------2--------|-2---0-2-------0-2-|---------0-2-3-|
G|-----4---------4---|-------4-------4--|---0---------0-----|-------0-------|
D|---4---------4-----|-----4------------|-------------------|-----2---------|
A|-------------------|------------------|-------------------|---------------|
E|-------------------|------------------|-------------------|---------------|


e|-------------------|------------------|-------------------|---------------|
B|-2---0-2-------0-2-|-------0-2-----3--|-2-----0-----2-----|---------------|
G|---0---------0-----|-----0------------|-----2-------------|-4-----4-----3-|
D|-------------------|------------------|---4---------------|---2-4---------|
A|-------------------|------------------|-------------------|---------------|
E|-------------------|------------------|-------------------|---------------|

===============================================================================
Tap to rate this tab
# A B C D E F G H I J K L M N O P Q R S T U V W X Y Z