Song name
# A B C D E F G H I J K L M N O P Q R S T U V W X Y Z

Aleks Syntek - Intocable tab

This is the intro for the song "Intocable" of Aleks Syntek.. I'm sure that the
tabs are correct... enjoy it..! 




e|-13----------13----------13--------------|
B|----11-10-11----11-10-11----11-10-11-----|
G|-----------------------------------------|
D|-----------------------------------------|
A|-----------------------------------------|
E|-----------------------------------------|


e|-11-10-------11-10-----------|
B|-------13-11-------13--------|
G|-----------------------------|
D|-----------------------------|
A|-----------------------------|
E|-----------------------------|


e|-13----------13----------13--------------|
B|----11-10-11----11-10-11----11-10-11-----|
G|-----------------------------------------|
D|-----------------------------------------|
A|-----------------------------------------|
E|-----------------------------------------|


e|-11-10-------11-10-----------|
B|-------13-11-------13--------|
G|-----------------------------|
D|-----------------------------|
A|-----------------------------|
E|-----------------------------|
Tap to rate this tab
 
# A B C D E F G H I J K L M N O P Q R S T U V W X Y Z