Song name
# A B C D E F G H I J K L M N O P Q R S T U V W X Y Z

Alesha Dixon - Lipstick tab

Artist: Alesha Dixon    http://www.aleshadixon.net/
Track: Lipstick
Tabber: Woodshed



  A5                G5              C5              D5
e|---------------------------------------------------------------------|
B|----10--10--10-10-10--9--8----------10--10--10-10-10--9--8-----------|
G|---------------------------------------------------------------------|
D|---------------------------------------------------------------------|
A|---------------------------------------------------------------------|
E|---------------------------------------------------------------------|

  A5                G5              C5          D5
e|---------------------------------------------------------------------|
B|-----------------------------------8-------------8-------------------|
G|--10--10--10-10-10--9--8---------9---9--------9-----9----------------|
D|---------------------------------------10--------------10------------|
A|---------------------------------------------------------------------|
E|---------------------------------------------------------------------|
Tap to rate this tab
 
# A B C D E F G H I J K L M N O P Q R S T U V W X Y Z