Song name
# A B C D E F G H I J K L M N O P Q R S T U V W X Y Z

Alex Britti - Lisola Che Non Ce tab

Tuning: 1/2 step down


Intro:

Eb|-----0-------------0---|----------------0-----|
Bb|-----3--3---3--------3-|------------3-------3-|
Gb|-----2----2------2-----|-0h2------2-------2---|
Db|-0------------0--------|------0---------------|
Ab|-----------------------|----------------------|
Eb|-----------------------|----------------------|


Verse:

          D               D                             A7   

Eb|-------0-------|-------0-------|-----------------|--------0-------|
Bb|---------3---3-|---------3---3-|-----------3-----|-1h2------2---2-|
Gb|-----2-----2---|-----2-----2---|-------0---0---0-|-0----------0---|
Db|-0-------------|-0-------------|-----2-------2---|-2----2---------|
Ab|---------------|---------------|-0---------------|----------------|
Eb|---------------|---------------|-----------------|----------------|


          G                G                 D                                Bm              

Eb|-------------3-|----------3-------|-------0-------|-----------------|-----------------|
Bb|---------3---3-|----3-----------3-|---------3---3-|-------3-------3-|-------3---------|
Gb|------0------0-|-------------0----|-----2-----2---|-----2-------2---|----------4---4--|
Db|----0--------0-|------------------|-0-------------|-0---------------|-----4------4----|
Ab|-------------2-|------------------|---------------|----------4------|-2---------------|
Eb|-3-----------3-|-3-----3----------|---------------|-----------------|-----------------|

F#7
---------------|
---------2-----|
------3------3-|
----2------2---|
---------------|
-2-------------|


          G                G                 D                                 D 

Eb|-------------3-|----------3-------|-------0-------|-----------------|-0-----0---------|
Bb|---------3---3-|----3-----------3-|---------3---3-|-----------3-----|-3-------3---3---|
Gb|------0------0-|-------------0----|-----2-----2---|-------0---0---0-|-2---2-----2-----|
Db|----0--------0-|------------------|-0-------------|-----2-------2---|-0-------------0-|
Ab|-------------2-|------------------|---------------|-0---------------|-----------------|
Eb|-3-----------3-|-3-----3----------|---------------|-----------------|-----------------|


Dal 2^ verso in poi l'ultima "battuta" e' cosi':

Eb|------2p0---------| 
Bb|-3--------3---3---|
Gb|-2----------2-----|
Db|-0--0-----------0-|
Ab|------------------|
Eb|------------------|



Verse #1:

D         
Seconda stella a destra
              A7   
questo è il cammino
       G                D
e poi dritto, fino al mattino
        Bm       F#7       G      
poi la strada la trovi da te
           D    A         D
porta all'isola   che non c'e.


Verse #2:

D         
Forse questo 
            A7/A
ti sembrerà strano
       G                             D
ma la ragione ti ha un po' preso la mano
        Bm           F#7   G  
ed ora sei quasi convintoo cheee
        D               A         D
non può esistere un'isola che non c'e


Verse #3:

D         
E a pensarci, 
      A7/A
che pazzia

è una favola, è solo fantasia

e chi è saggio, chi è maturo lo sa

non può esistere nella realtà!....


Chorus:

       Bm         F#7
Son d'accordo con voi
       Bm        F#7
non esiste una terra
      G         D        A7 
dove non ci son santi né eroi
     Em7         A7
e se non ci son ladri
       Em7         A7
se non c'è mai la guerra
        Em7            A7
forse è proprio l'isola

che non c'è....            che non c'è!...
    Eb|-------------------------|------------0-|
    Bb|------------------<7>----|-------2-3--3-|
    Gb|------------------<7>----|-------0-0--0-|
    Db|------------5/9---<7>----|-----2--------|
    Ab|---------5---------------|--------------|
    Eb|-0h5--7------------------|-0------------|



Verse #4:

D
E non è 
       A7/A
un'invenzione
      G                D
e neanche un gioco di parole
      Bm        F#7      G  
se ci credi ti basta perché
   D             A         D
quella è l'isola, che non c'è


Solo:


Chorus:

       Bm         F#7
Son d'accordo con voi
       Bm         F#7
niente ladri e gendarmi
      G        D      A7 
ma che razza di isola è?
     Em7         A7
Niente odio e violenza
     Em7         A7
né soldati né armi
     Em7         A7
forse è proprio l'isola

che non c'è....                                    che non c'è!...
                               
    Eb|--------------|---------------|-----------------|------------0-|
    Bb|--------------|-----x-x-x-<5>-|------x-x-<7>----|---------3--3-|
    Gb|--------------|-----x-x-x-----|------x-x-<7>----|-------0-0--0-|
    Db|------------5-|-----x-x-x-----|-7/9--x-x-<7>----|-----2--------|
    Ab|---------5----|-5h7-----------|-----------------|--------------|
    Eb|-0h5--7-------|---------------|-----------------|-0------------|


Verse #5

D         
Seconda stella a destra
            A7/A
questo è il cammino
       G                   D
e poi dritto, fino al mattino
        Bm      F#7       G  
non ti puoi sbagliare perchè
         D       A7        D    Gmaj7sus
quella è l'isola,  che non c'è.



Outro:

G                Asus4
E ti prendono in giro
      D            G 
se continui a cercarla
       D         A        D    Gmaj7sus
ma non darti per vinto perché
          G        Asus4
chi ci ha già rinunciato
     D          G
e ti ride alle spalle

              D          

        |-----2-----|  |-----------|  |-----------------|-----------|
        |-----3-----|  |-----3-----|  |-------3---3---3-|-----3-----|
        |-----2-----|  |-----0-----|  |-----0---2---0---|-----2-----|
        |-----0-----|  |-----2-----|  |---0-------------|-----0-----|
        |-----------|  |-----------|  |-----------------|-----0-----|
        |-----------|  |-----------|  |-3---------------|-----------|

forse è    ancora   più    pazzo    di  teeeeeeeeeeeee.............

Tap to rate this tab
# A B C D E F G H I J K L M N O P Q R S T U V W X Y Z