Song name
# A B C D E F G H I J K L M N O P Q R S T U V W X Y Z

Alex Goot Against The Current - Not Over You tab

First Tab
Intro 
e|-----------------------------------------------------|
B|-----------------------------------------------------|
G|----------555----------------------------------------|  x2
D|--88-888--555--55-555--333---------------------------|
A|--88-888--333--55-555--333---------------------------|
E|--66-666-------33-333--111---------------------------|


1st Verse 
e|-----------------------------------------------------|
B|-----------------------------------------------------|
G|----------555----------------------------------------|  x3
D|--88-888--555--55-555--333---------------------------|
A|--88-888--333--55-555--333---------------------------|
E|--66-666-------33-333--111---------------------------|

Pre Chorus 
e|-----------------------------------------------------|
B|-----------------------------------------------------|
G|----------555--------------8~------------------------|  x1
D|--88-888--555--55-555--33--8~------------------------|
A|--88-888--333--55-555--33--6~------------------------|
E|--66-666-------33-333--11----------------------------|



1st Chorus 
e|-----------------------------------------------------|
B|-----------------------------------------------------|
G|----------8-8-8-8---------8-8-8-8--------------------|  x2
D|--8-8-8-8-8-8-8-8-5-5-3-3-8-8-8-8--------------------|
A|--8-8-8-8-6-6-6-6-5-5-3-3-6-6-6-6--------------------|
E|--6-6-6-6---------3-3-1-1----------------------------|

e|-----------------------------------------------------|
B|-----------------------------------------------------|
G|-----------------------------------------------------|  x1
D|--8-8-3----------------------------------------------|
A|--8-8-3----------------------------------------------|
E|--6-6-1----------------------------------------------|



Post Chorus
e|-----------------------------------------------------|
B|-----------------------------------------------------|
G|----------555----------------------------------------|  x1
D|--88-888--555--55-555--333---------------------------|
A|--88-888--333--55-555--333---------------------------|
E|--66-666-------33-333--111---------------------------|


Second Verse
e|-----------------------------------------------------|
B|-----------------------------------------------------|
G|----------555----------------------------------------|  x4
D|--88-888--555--55-555--333---------------------------|
A|--88-888--333--55-555--333---------------------------|
E|--66-666-------33-333--111---------------------------|


Pre Chorus
e|-----------------------------------------------------|
B|-----------------------------------------------------|
G|-----------------------------------------------------|  x1
D|--8~-------------------------------------------------|
A|--8~-------------------------------------------------|
E|--6~-------------------------------------------------|


Second Chorus

e|-----------------------------------------------------|
B|-----------------------------------------------------|
G|----------8-8-8-8---------8-8-8-8--------------------|  x2
D|--8-8-8-8-8-8-8-8-5-5-3-3-8-8-8-8--------------------|
A|--8-8-8-8-6-6-6-6-5-5-3-3-6-6-6-6--------------------|
E|--6-6-6-6---------3-3-1-1----------------------------|

e|-----------------------------------------------------|
B|-----------------------------------------------------|
G|-----------------------------------------------------|  x2
D|--8-8-3-3--------------------------------------------|
A|--8-8-3-3--------------------------------------------|
E|--6-6-1-1--------------------------------------------|

e|-----------------------------------------------------|
B|-----------------------------------------------------|
G|-----------------------------------------------------|  x1
D|--8-8------------------------------------------------|
A|--8-8------------------------------------------------|
E|--6-6------------------------------------------------|


e|-----------------------------------------------------|
B|-----------------------------------------------------|
G|----------555----------------------------------------|  x2
D|--88-888--555--55-555--333---------------------------|
A|--88-888--333--55-555--333---------------------------|
E|--66-666-------33-333--111---------------------------|
Tap to rate this tab
# A B C D E F G H I J K L M N O P Q R S T U V W X Y Z