Alex Lifeson - Start Today tab

#-----------------------------------------------------------------------------#
#-- File created with Instab - http://www.pconline.com/~smcarey/instab.html --#
#-----------------------------------------------------------------------------#

Author/Artist: Alex Lifeson
Title: Start Today
Album: Victor (Atlantic 82852-2)
Transcribed by: Richard J. Soto
Email: hrhkinglerxst@home.com

Copyright 1996 Atlantic Recording Corporation,
 WEA International Inc. & Anthem Entertainment.
Music by Alex Lifeson.

Dated September 1, 2001
During the quiet section of the verses Alex has 2 different
clean guitars tracked in each channel. I've tabbed the one
in the left as it's most audible and even that is VERY dificult to
make heads of! They seem to be both similar however.

There's an clean upstrummed barred G chord at the
beginning of each measure during the prechoruses which isnt tabbed
here cause it wouldnt be reproduced in a live setting with presummably
only 1 guitarist.

The solo is INCOMPLETE & will be completed at some future time.
The beginning of the solo *may be* wrong. I'll check & finish it soon.

--------------|-------------|-------------|-------------|-------------|-------|
--------------|-------------|-------------|-------------|-------------|-------|
--------------|-------------|-------------|-------------|-------------|-------|
--------------|-------------|-------------|-------------|-------------|-------|
---------1---3|--------1-1-3|--------1---3|--------1-1-3|--------1---3|-------|
-0-1-3-3------|0-1-3-3------|0-1-3-3------|0-1-3-3------|0-1-3-3------|-------|
 1 & 2 & 3 & 4 1 & 2 & 3 & 4

--------------|-------------|-------------|-------------|-------------||------|
--------------|-------------|-------------|-------------|-------------||------|
--------------|-------------|-------------|-------------|-------------||------|
--------------|-------------|-------------|-------------|-------------||------|
---------1-1-3|--------1---3|--------1-1-3|--------1---3|--------1-1-3||------|
-0-1-3-3------|0-1-3-3------|0-1-3-3------|0-1-3-3------|0-1-3-3------||------|


--------------------------------|-------------------------------|-------------|
-3-1h3-1-h3b5r3-1-----------1vv-|-------------------------------|-------------|
------------------0h3p0-0-3-----|7-5---------5-5p3p0-------5-3v-|-------------|
--------------------------------|----7p5p0-5---------5-3-5------|-------------|
--------------------------------|-------------------------------|-------------|
--------------------------------|-------------------------------|-------------|
 Rhy1>start>

-1p0---------------0-0-0-0----------------|-1--------------1---------||-------|
-----3p0-1-1-1h3-3---------3-3-1--1-0-1-1-|-3----1--1------1---1h3-1-||-------|
------------------------------------------|------3--3-3-0------------||-------|
------------------------------------------|--------------------------||-------|
------------------------------------------|--------------------------||-------|
------------------------------------------|--------------------------||-------|
                                            .    x  x      .      start>   .       .         .         .      .       .         .

-----------------|-----------------|----------------|---------8--8--8-||------|
--8--8--6--6-6-6-|10---8---8--8--8-|-8--8--6--6-6-6-|10---8---8--8--8-||------|
-10--9--7--7-7-7-|-9---9---9--9--9-|10--9--7--7-7-7-|-9---9---9--9--9-||------|
-10-10--8--8-8-8-|10--10--10-10-10-|10-10--8--8-8-8-|10--10--10-10-10-||------|
--8-10--8--8-8-8-|-8--10--10-10-10-|-8-10--8--8-8-8-|-8--10--10-10-10-||------|
--8--8--6--6-6-6-|-8---8---8--8--8-|-8--8--6--6-6-6-|-8---8---8--8--8-||------|
        .      .       .         .         .      .       .         .start>     1 & 2 & 3 & 4 & 1 & 2 & 3 & 4 & 1 & 2 & 3 & 4 & 
                        
                    
Tap to rate this tab
 
# A B C D E F G H I J K L M N O P Q R S T U V W X Y Z