Song name
# A B C D E F G H I J K L M N O P Q R S T U V W X Y Z

Alexi Murdoch - Wait tab

Artist: Alexi Murdoch
Song:   Wait
Album:  Time Without Consequence

Hi! This tab is based the tab by crookedpath that was added before (thank you!), only I
wanted to figure out the exact fingerpicking parts Alexi Murdoch is playing in his
version. So I tried and I thought I would share it! This is my first tab: I'm not an 
expert at this, so I'm open to feedback. I really love this song, and the fingerpicking sounds
right to me this way. Good luck and have fun!

Tuning: EADGBd - Tune down a half step to match CD!

Chords:
  D   xx0230
  A   x02220 (effectively Asus4)
  Am7 002010 (effectively Am7sus4)
  C   032010 (effectively Csus2)
  G   320030


Intro

    D                   A
E|------------------------0---0------0---0--|
B|------3-------3---3-----2---2------2---2--|
G|----2---2---2---2-----2----------2---2----|  2x
D|--0-------0---------0-----0---------------|
A|------------------------------------------|
E|------------------------------------------|


Verse 1

    D                   A
E|------------------------0---0------0---0--|
B|------3-------3---3-----2---2------2---2--|
G|----2---2---2---2-----2----------2---2----|  2x
D|--0-------0---------0-----0---------------|
A|------------------------------------------|
E|------------------------------------------|

    D                   Am7
E|------------------------0---0------0---0--|
B|------3-------3---3-----1---1------1---1--|
G|----2---2---2---2-----2----------0---0----|  1x
D|--0-------0---------0-----2---------------|
A|------------------------------------------|
E|------------------------------------------|

    C                   G
E|------------------------0---0------0---0--|
B|------1-------1---1-----3---3------3---3--|
G|----0---0---0---0-----1----------0---0----|  2x
D|--2-------2---------2-----0---------------|
A|------------------------------------------|
E|------------------------------------------|

  [D] Feel I'm on the verge of some great [A] truth
  [D] Where I'm finally in my [A] place
  [D] But I'm fumbling still for [Am7] proof
  [C] And it's cluttering my space [G]
  [C] Casting shadows on my face [G]



Verse 2 (same as verse 1)

    D                   A
E|------------------------0---0------0---0--|
B|------3-------3---3-----2---2------2---2--|
G|----2---2---2---2-----2----------2---2----|  2x
D|--0-------0---------0-----0---------------|
A|------------------------------------------|
E|------------------------------------------|

    D                   Am7
E|------------------------0---0------0---0--|
B|------3-------3---3-----1---1------1---1--|
G|----2---2---2---2-----2----------0---0----|  1x
D|--0-------0---------0-----2---------------|
A|------------------------------------------|
E|------------------------------------------|

    C                   G
E|------------------------0---0------0---0--|
B|------1-------1---1-----3---3------3---3--|
G|----0---0---0---0-----1----------0---0----|  2x
D|--2-------2---------2-----0---------------|
A|------------------------------------------|
E|------------------------------------------|

  [D] And though I have the strength to move a hill [A]
  [D] I can hardly leave my room [A]
  [D] So I'll sit perfectly [Am7] still
  [C] And I'll listen for a tune [G]
  [C] When my mind is on the moon [G]


Chorus (strumming):

  And [D] if I stumble,     And [Am7] if I stall,
  And [C] if I slip down,   And [G]   if I should fall,
  And [D] if I can't be,    [Am7] All that I could be
  Will [C] you,             Will you [G] wait for me?

Instrumental:

    D                   A
E|------------------------0---0------0---0--|
B|------3-------3---3-----2---2------2---2--|
G|----2---2---2---2-----2----------2---2----|  2x
D|--0-------0---------0-----0---------------|
A|------------------------------------------|
E|------------------------------------------|


Verse 3:
    D                   D
E|------------------------0---0------0---0--|
B|------3-------3---3-----3---3------3---3--|
G|----2---2---2---2-----2----------2---2----|  2x
D|--0-------0---------0-----0---------------|
A|------------------------------------------|
E|------------------------------------------|

    D                   Am7
E|------------------------0---0------0---0--|
B|------3-------3---3-----1---1------1---1--|
G|----2---2---2---2-----2----------0---0----|  1x
D|--0-------0---------0-----2---------------|
A|------------------------------------------|
E|------------------------------------------|

    C                   G
E|------------------------0---0------0---0--|
B|------1-------1---1-----3---3------3---3--|
G|----0---0---0---0-----1----------0---0----|  2x
D|--2-------2---------2-----0---------------|
A|------------------------------------------|
E|------------------------------------------|

  [D] 'Cause everywhere I seem to [D] be
  [D] I am only passing [D] through
  [D] I dream these days about the [Am7] sea
  [C] I always wake up feeling blue [G]
  [C] Wishing I could dream of you [G]



Repeat chorus (with minor lyrics changes):
  And [D] if I stumble,     And [Am7] if I stall,
  And [C] if I slip down,   And [G]   lose it all,
  And [D] if I can't be,    [Am7] All that I could be,
  Will [C] you,             Will you [G] wait for me?

Finale:
  And [D] wait for me, and [Am7] wait for me,
  And [C] wait for me, would you [G] wait for me,

End:
  And [D] wait for me, please [Am7] wait for me,
  Please [C] wait for me, would you [G] wait for me,
(repeat 5x)

Instrumental (strumming):
  D  Am7  C  G
Tap to rate this tab
# A B C D E F G H I J K L M N O P Q R S T U V W X Y Z