Song name
# A B C D E F G H I J K L M N O P Q R S T U V W X Y Z

Algernon Cadwallader - Spit Fountain tab

#----------------------------------PLEASE NOTE---------------------------------#
#This file is the author's own work and represents their interpretation of the #
#song. You may only use this file for private study, scholarship, or research. #
#------------------------------------------------------------------------------##


Gtr I (D A E A C# E) - 'Lead Guitar'
Gtr II (D A D G) - 'Bass'


  H=76
  Gtr I
  Q  Q  Q  Q    E E E E E E Q    Q  Q  Q  Q    E E E E E E E E
|----0--------|----------------|----0--------|---------------0-|
|-------0-----|----------------|-------0-----|-----------------|
|----------0--|----------------|----------0--|-----------------|
|-------------|---------0-4-5--|-------------|---------0-4-5---|
|-------------|-------0--------|-------------|-------0---------|
|-0-----------|-0-2-4----------|-0-----------|-0-2-4-----------|


  Q  Q  Q  Q    E E E E E E Q    Q  Q  Q  Q    E E E E E E E E
|----0--------|----------------|----0--------|---------------0-|
|-------0-----|----------------|-------0-----|-----------------|
|----------0--|----------------|----------0--|-----------------|
|-------------|---------0-4-5--|-------------|---------0-4-5---|
|-------------|-------0--------|-------------|-------0---------|
|-0-----------|-0-2-4----------|-0-----------|-0-2-4-----------|


                                 H=H
  Q  Q  Q  Q    E E E E E E Q    Q  Q  Q  E S S   E E E E E E E E
|----0--------|----------------|----0-----------|------------------|
|-------0-----|----------------|-------0--------|------------------|
|----------0--|----------------|----------------|------------------|
|-------------|---------0-4-5--|----------------|-----------5-4-0--|
|-------------|-------0--------|----------------|---0-2-4-7--------|
|-0-----------|-0-2-4----------|-0----------0-2-|-4----------------|


  H=95
  Q   Q   Q   E  E    +E  S S E E E S S E E
|-----0-------4--5--|-(5)-------------------|
|---------0---3-(3)-|-(3)-0-3-5-3-0---------|
|-------------------|---------------0-5-7---|
|-------------------|---------------------0-|
|-0-----------------|-----------------------|
|-------------------|-----------------------|
|
| Gtr II
| E E E E E E E  E     E  E   E E E E   E E
|-------------------|-----------------------|
|-------------------|-----------------------|
|-0-0-0-0-0-0-0--0--|--0--0---0-0-0-0---0-0-|
|-------------------|-----------------------|


  Q   Q   H         E E E E E E E E
|-----0-----------|-------4-5-4-0---|
|-----------------|-----3---------0-|
|---------0-------|-2-4-------------|
|-----------------|-----------------|
|-----------------|-----------------|
|-0---------------|-----------------|
|
| E E E E E E E E   E E E E E E E E
|-----------------|-----------------|
|-----------------|-----------------|
|-5-5-5-5-5-5-5-5-|-5-5-5-5-5-5-5-5-|
|-----------------|-----------------|


  Q   Q   E Q    E   +E  E E E  E  E  E E
|-----0------------|-----------------12---|
|---------------/8-|-(8)-----8-10-12----8-|
|---------4-5------|-----7-9--------------|
|------------------|----------------------|
|-0----------------|----------------------|
|------------------|----------------------|
|
| E E E E E E E  E    E  E E E  E  E  E E
|------------------|----------------------|
|------------------|----------------------|
|-0-0-0-0-0-0-0--0-|--0--0-0-0--0--0--0-0-|
|------------------|----------------------|


  Q    Q   Q   Q     E E E E  H
|-----12---9-------|---------^0-------|
|------8---8-------|---------^8-------|
|------------------|-7-4-----^7-------|
|------------------|-----7-5-^9-------|
|------------------|------------------|
|-0------------0---|------------------|
|
| E E  E E E E E E   E E E E  E E E E
|------------------|------------------|
|------------------|------------------|
|-5-5--5-5-5-5-5-5-|-5-5-5-5--5-5-5-5-|
|------------------|------------------|


   +H        E  E E   E    +Q.     S S E E E E
|-^(0)------------9\-12-|-(12)-----------------|
|-^(8)-------8-10-------|----------------5-3-0-|
|-^(7)------------------|----------0-4-5-------|
|-^(9)------------------|----------------------|
|-----------------------|----------------------|
|-----------------------|----------------------|
|
|   E  E E E E  E E   E     E  E E E   E E E E
|-----------------------|----------------------|
|-----------------------|----------------------|
|---9--9-9-9-9--9-9---9-|---9--9-9-9---9-9-9-9-|
|-----------------------|----------------------|


  E E E Q    E  E E   E E E Q    E  E E
|-------7----5------|-------5----0--5-0--|
|---0---3---(3)-3---|---0---3----0--0-0--|
|-0---0-5---(5)---4-|-0---0-2---(2)-2-0--|
|-------------------|--------------------|
|-------------------|--------------------|
|-------------------|--------------------|
|
| E E E E E  E  E E   E E E E E  E  E E
|-------------------|--------------------|
|-9-9-9-9-9--9--9-9-|-7-7-7-7-7--7--7-7--|
|-------------------|--------------------|
|-------------------|--------------------|


  Q  E Q   E E E   E E E E Q  Q    Q  E  E  +H        E E Q  E E E E
|----5-----5-----|---5-----------|------^0-^(0)-----|----------------|
|------3-----3---|-----1-0-------|------^3-^(3)-----|--------5-3-----|
|-0------------0-|-0-------2--0--|------^4-^(4)-----|-----4------5-4-|
|----------------|---------------|-5--5-^5-^(5)-----|-2-5------------|
|----------------|---------------|------------------|----------------|
|----------------|---------------|------------------|----------------|
|
| Q  Q   Q   Q     Q   Q   Q  Q    Q  Q      Q   Q    Q   Q  Q   Q
|----------------|---------------|------------------|----------------|
|----------------|---------------|------------------|----------------|
|-0--0---0---0---|-0---0---0--0--|------------------|----------------|
|----------------|---------------|-5--5------5---5--|-5---5--5---5---|


  Q  E E E E Q    E E E E E E E E   Q  E  Q    E   E   E    E E Q  E E E E
|------5-----5--|---5-------------|------^0----0----------|----------------|
|----3---3---3--|-3---3---3---3---|------^3---(3)--0------|--------5-3-----|
|-4--------4----|-------4---4---4-|------^4---(4)-(4)--0--|-----4------5-4-|
|---------------|-----------------|-5--5-^5---(5)-(5)-(5)-|-2-5------------|
|---------------|-----------------|-----------------------|----------------|
|---------------|-----------------|-----------------------|----------------|
|
| Q  Q   Q   Q    Q   Q   Q   Q     Q  Q    Q      Q        Q   Q  Q   Q
|---------------|-----------------|-----------------------|----------------|
|---------------|-----------------|-----------------------|----------------|
|-0--0---0---0--|-0---0---0---0---|-----------------------|----------------|
|---------------|-----------------|-5--5----5------5------|-5---5--5---5---|


  Q   Q   Q   Q     E E E E E E Q
|-----0-----------|-----------------|
|---------0-------|-----------------|
|-------------0---|-----------------|
|-----------------|---------0-4s5---|
|-0---------------|-------0---------|
|-----------------|-0-2-4-----------|
|
| E E E E E E E E   E E E E E E E E
|-----------------|-----------------|
|-----------------|-----------------|
|-0-0-0-0-0-0-0-0-|-5-5-5-5-5-5-5-5-|
|-----------------|-----------------|


  Q   Q   Q   E S S   E E E E  Q    Q
|-----0-------------|----------0---(0)------|
|---------0---------|----------0---(0)------|
|-------------------|---------/5---/4-------|
|-------------------|-----0-4-/5---(5)------|
|-0-----------------|---0-------------------|
|---------------0-2-|-4---------------------|
|
| E E E E E E E E     E E E E  E E  E  E
|-------------------|-----------------------|
|-------------------|-----------------------|
|-0-0-0-0-0-0-0-0---|-5-5-5-5--5-5--5--5----|
|-------------------|-----------------------|


  +Q    Q   Q   Q     E Q Q    Q    E      Q    Q   Q   Q     E E Q   Q   Q
|-(0)---0-----------|---------/5---/5---|-(5)---0-----------|-----------------|
|-(0)-------0-------|-3-3-3---/3---/3---|-(3)-------0-------|-----------------|
|-(4)-----------0---|-4-5-4-------------|---------------0---|-----------------|
|-(5)---------------|-------------------|-------------------|-----------------|
|-------------------|-------------------|--0----------------|-----0---2---0---|
|-------------------|-------------------|-------------------|-2-4-------------|
|
|  E  E E E E E E E   E E E E  E E  E E    E  E E E E E E E   E E E E E E E E
|-------------------|-------------------|-------------------|-----------------|
|-------------------|-------------------|-------------------|-----------------|
|--0--0-0-0-0-0-0-0-|-5-5-5-5--7-7--7-7-|--0--0-0-0-0-0-0-0-|-5-5-5-5-5-5-5-5-|
|-------------------|-------------------|-------------------|-----------------|


   T    T    T    T      T        T      T
   E E  E E  E E  E E    E S S E  E E E  E E
|-12p0----------------|----------------------|
|------12p8------12p8-|-----------------12p8-|
|-----------12p0------|-12p0-7h9-12p7p0------|
|---------------------|----------------------|
|---------------------|----------------------|
|---------------------|----------------------|
|
|  E Q    E  H           E Q      E H
|---------------------|----------------------|
|---------------------|----------------------|
|--2-2----0--0--------|----4------4-5--------|
|---------------------|----------------------|


   T    T    T    T      T        T
   E E  E E  E E  E E    E S S E  E E E Q
|-12p0----------------|--------------------|
|------12p8------12p8-|-----------------0--|
|-----------12p0------|----------12p7p0-0--|
|---------------------|-12p0-4h5-----------|
|---------------------|--------------------|
|---------------------|--------------------|
|
|  E Q    E  H           E Q      E H
|---------------------|--------------------|
|---------------------|--------------------|
|--2-2----0--0--------|----4------4-5------|
|---------------------|--------------------|


   T    T    T    T      T        T
   E E  E E  E E  E E    E S S E  E E E   Q
|-12p0----------------|-----------------------|
|------12p8------12p8-|-----------------------|
|-----------12p0------|-12p0-7h9-12p7p0-<12>--|
|---------------------|-----------------<12>--|
|---------------------|-----------------------|
|---------------------|-----------------------|
|
|  E Q    E  H           E Q      E H
|---------------------|-----------------------|
|---------------------|-----------------------|
|--2-2----0--0--------|----4------4-5---------|
|---------------------|-----------------------|


   T    T    T    T      T        T
   E E  E E  E E  E E    E S S E  E E E Q
|-12p0----------------|--------------------|
|------12p8------12p8-|-----------------0--|
|-----------12p0------|----------12p7p0-0--|
|---------------------|-12p0-4h5-----------|
|---------------------|--------------------|
|---------------------|--------------------|
|
|  E Q    E  H           E Q      E H
|---------------------|--------------------|
|---------------------|--------------------|
|--2-2----0--0--------|----4------4-5------|
|---------------------|--------------------|


  Q  Q  E Q  E   +E  E +E  E E E  E   E    Q  Q  E Q  E    E  E E E E E Q
|--------------|-------------------------|--------------|-------------------|
|--------------|-------------------------|--------------|---------------8---|
|-7--7--7-7--7-|-(7)-7-(7)-7-9-7-(7)-(7)-|-7--7--7-7----|-----------7---7---|
|-9--9--9-9--9-|-(9)-9-(9)-9-9-9-10---9--|-9--9--9-9----|--0--5-7-9---9-----|
|-0--0--0-0--0-|-(0)-0-(0)-0-0-0--0---0--|-0--0--0-0--0-|-------------------|
|--------------|-------------------------|--------------|-------------------|
|
| Q  Q  E Q  E   +E  E  Q    E E  E   E    Q  Q  E Q  E   +E  E Q   E E E E
|--------------|-------------------------|--------------|-------------------|
|--------------|-------------------------|--------------|-------------------|
|-0--0--0-0--0-|-(0)-0--0----5-4--2---0--|-0--0--0-0--0-|-(0)-0-0---5-4-2-0-|
|--------------|-------------------------|--------------|-------------------|


  Q  Q  E Q  E   +E  E +E  E E E  E   E    Q  Q  E Q  E    E  E E E E E E E
|--------------|-------------------------|--------------|-------------------|
|--------------|-------------------------|--------------|-------------8-----|
|-7--7--7-7--7-|-(7)-7-(7)-7-9-7-(7)-(7)-|-7--7--7-7----|-----------7---7-0-|
|-9--9--9-9--9-|-(9)-9-(9)-9-9-9-10---9--|-9--9--9-9--0-|--5--7-5-0---------|
|-0--0--0-0--0-|-(0)-0-(0)-0-0-0--0---0--|-0--0--0-0----|-------------------|
|--------------|-------------------------|--------------|-------------------|
|
| Q  Q  E Q  E   +E  E  Q    E E  E   E    Q  Q  E Q  E   +E  E Q   E E E E
|--------------|-------------------------|--------------|-------------------|
|--------------|-------------------------|--------------|-------------------|
|-0--0--0-0--0-|-(0)-0--0----5-4--2---0--|-0--0--0-0--0-|-(0)-0-0---5-4-2-0-|
|--------------|-------------------------|--------------|-------------------|


  Q   Q   Q   E  E    +E  S S E E E S S E E
|-----0-------4--5--|-(5)-------------------|
|---------0---3-(3)-|-(3)-0-3-5-3-0---------|
|-------------------|---------------0-5-7---|
|-------------------|---------------------0-|
|-0-----------------|-----------------------|
|-------------------|-----------------------|
|
| Gtr II
| E E E E E E E  E     E  E   E E E E   E E
|-------------------|-----------------------|
|-------------------|-----------------------|
|-0-0-0-0-0-0-0--0--|--0--0---0-0-0-0---0-0-|
|-------------------|-----------------------|


  Q   Q   H         E E E E E E E E
|-----0-----------|-------4-5-4-0---|
|-----------------|-----3---------0-|
|---------0-------|-2S4-------------|
|-----------------|-----------------|
|-----------------|-----------------|
|-0---------------|-----------------|
|
| E E E E E E E E   E E E E E E E E
|-----------------|-----------------|
|-----------------|-----------------|
|-5-5-5-5-5-5-5-5-|-5-5-5-5-5-5-5-5-|
|-----------------|-----------------|


  Q   Q   E Q    E   +E  E E E  E  E  E E
|-----0------------|-----------------12---|
|---------------/8-|-(8)-----8-10S12----8-|
|---------4S5------|-----7-9--------------|
|------------------|----------------------|
|-0----------------|----------------------|
|------------------|----------------------|
|
| E E E E E E E  E    E  E E E  E  E  E E
|------------------|----------------------|
|------------------|----------------------|
|-0-0-0-0-0-0-0--0-|--0--0-0-0--0--0--0-0-|
|------------------|----------------------|


  Q    Q   Q   E  E    +E    E E E  E   Q.
|-----12---9---------|-----------------^9----|
|------8---8---------|-----------------^8----|
|--------------------|-------2S4-0-(0)-------|
|--------------0h(2)-|-(2)-------------------|
|--------------------|-----------------------|
|-0------------------|-----------------------|
|
| E E  E E E E E  E     E  E E E E  E   E  E
|--------------------|-----------------------|
|--------------------|-----------------------|
|-5-5--5-5-5-5-5--5--|--5--5-5-5-5--5---5--5-|
|--------------------|-----------------------|


   Q     Q    E  E E   E    +Q      E E E E E E
|------------------9\-12-|-(12)-----------------|
|-------------8S10-------|----------------5S3-0-|
|------------------------|----------0-4S5-------|
|-(7)---(5)--------------|----------------------|
|------------------------|----------------------|
|------------------------|----------------------|
|
|  E  E  E  E E  E E   E     E  E E E   E E E E
|------------------------|----------------------|
|------------------------|----------------------|
|--9--9--9--9-9--9-9---9-|---9--9-9-9---9-9-9-9-|
|------------------------|----------------------|


  E E E Q    E  E E   E E E Q    E  E E
|-------7----5------|-------5----0--5-0--|
|---0---3---(3)-3---|---0---3----0--0-0--|
|-0---0-5---(5)---4-|-0---0-2---(2)-2-0--|
|-------------------|--------------------|
|-------------------|--------------------|
|-------------------|--------------------|
|
| E E E E E  E  E E   E E E E E  E  E E
|-------------------|--------------------|
|-9-9-9-9-9--9--9-9-|-7-7-7-7-7--7--7-7--|
|-------------------|--------------------|
|-------------------|--------------------|


  Q  E Q   E E E   E E E E Q  Q    Q  E  E  +H        E E Q  E E E E
|----5-----5-----|---5-----------|------^0-^(0)-----|----------------|
|------3-----3---|-----1-0-------|------^3-^(3)-----|--------5-3-----|
|-0------------0-|-0-------2--0--|------^4-^(4)-----|-----4------5-4-|
|----------------|---------------|-5--5-^5-^(5)-----|-2-5------------|
|----------------|---------------|------------------|----------------|
|----------------|---------------|------------------|----------------|
|
| Q  Q   Q   Q     Q   Q   Q  Q    Q  Q      Q   Q    Q   Q  Q   Q
|----------------|---------------|------------------|----------------|
|----------------|---------------|------------------|----------------|
|-0--0---0---0---|-0---0---0--0--|------------------|----------------|
|----------------|---------------|-5--5------5---5--|-5---5--5---5---|


  Q  E E E E Q    E E E E E E E E   Q  E  Q    E   E   E    E E Q  E E E E
|------5-----5--|---5-------------|------^0----0----------|----------------|
|----3---3---3--|-3---3---3---3---|------^3---(3)--0------|--------5-3-----|
|-4--------4----|-------4---4---4-|------^4---(4)-(4)--0--|-----4------5-4-|
|---------------|-----------------|-5--5-^5---(5)-(5)-(5)-|-2-5------------|
|---------------|-----------------|-----------------------|----------------|
|---------------|-----------------|-----------------------|----------------|
|
| Q  Q   Q   Q    Q   Q   Q   Q     Q  Q    Q      Q        Q   Q  Q   Q
|---------------|-----------------|-----------------------|----------------|
|---------------|-----------------|-----------------------|----------------|
|-0--0---0---0--|-0---0---0---0---|-----------------------|----------------|
|---------------|-----------------|-5--5----5------5------|-5---5--5---5---|


  Q   Q   Q   Q     E E E E E E Q     Q   Q   H         E E E E E E Q
|-----0-----------|-----------------|-----0-----------|--------------------|
|---------0-------|-----------------|-----------------|--------------------|
|-------------0---|-----------------|---------0-------|--------------------|
|-----------------|---------0-4-5---|-----------------|---------0-4-5------|
|-0---------------|-------0---------|-0---------------|-------0------------|
|-----------------|-0-2-4-----------|-----------------|-0-2-4--------------|
|
| E E E E E E E E   E E E E E E E E   E E E E E E E E   E E E E E E E E
|-----------------|-----------------|-----------------|--------------------|
|-----------------|-----------------|-----------------|--------------------|
|-0-0-0-0-0-0-0-0-|-5-5-5-5-5-5-5-5-|-0-0-0-0-0-0-0-0-|-5-5-5-5-5-5-5-5----|
|-----------------|-----------------|-----------------|--------------------|


  Q   Q   Q   Q     E Q Q    Q    E      Q    Q   Q   Q     E E Q   Q   Q
|-----0-----------|---------/5---/5---|-(5)---0-----------|-----------------|
|---------0-------|-3-3-3---/3---/3---|-(3)-------0-------|-----------------|
|-------------0---|-4-5-4-------------|---------------0---|-----------------|
|-5---------------|-------------------|-------------------|-----------------|
|-----------------|-------------------|--0----------------|-----0---2---0---|
|-----------------|-------------------|-------------------|-2-4-------------|
|
| E E E E E E E E   E E E E  E E  E E    E  E E E E E E E   E E E E E E E E
|-----------------|-------------------|-------------------|-----------------|
|-----------------|-------------------|-------------------|-----------------|
|-0-0-0-0-0-0-0-0-|-5-5-5-5--7-7--7-7-|--0--0-0-0-0-0-0-0-|-5-5-5-5-5-5-5-5-|
|-----------------|-------------------|-------------------|-----------------|


   T    T    T    T      T        T      T
   E E  E E  E E  E E    E S S E  E E E  E E
|-12p0----------------|----------------------|
|------12p8------12p8-|-----------------12p8-|
|-----------12p0------|-12p0-7h9-12p7p0------|
|---------------------|----------------------|
|---------------------|----------------------|
|---------------------|----------------------|
|
|  E Q    E  H           E Q      E H
|---------------------|----------------------|
|---------------------|----------------------|
|--2-2----0--0--------|----4------4-5--------|
|---------------------|----------------------|


   T    T    T    T      T        T
   E E  E E  E E  E E    E S S E  E E E Q
|-12p0----------------|--------------------|
|------12p8------12p8-|-----------------0--|
|-----------12p0------|----------12p7p0-0--|
|---------------------|-12p0-4h5-----------|
|---------------------|--------------------|
|---------------------|--------------------|
|
|  E Q    E  H           E Q      E H
|---------------------|--------------------|
|---------------------|--------------------|
|--2-2----0--0--------|----4------4-5------|
|---------------------|--------------------|


   T    T    T    T      T        T
   E E  E E  E E  E E    E S S E  E E E   Q
|-12p0----------------|-----------------------|
|------12p8------12p8-|-----------------------|
|-----------12p0------|-12p0-7h9-12p7p0-<12>--|
|---------------------|-----------------<12>--|
|---------------------|-----------------------|
|---------------------|-----------------------|
|
|  E Q    E  H           E Q      E H
|---------------------|-----------------------|
|---------------------|-----------------------|
|--2-2----0--0--------|----4------4-5---------|
|---------------------|-----------------------|


   T    T    T    T
   E E  E E  E E  E E   E E E E E E E E
|-12p0----------------|------------------|
|------12p8------12p8-|------------------|
|-----------12p0------|-0-0-0-0-0-0-0-0--|
|---------------------|------------------|
|---------------------|------------------|
|---------------------|------------------|
|
|  E Q    E  H          E Q   E H
|---------------------|------------------|
|---------------------|------------------|
|--2-2----0--0--------|---4---4-5--------|
|---------------------|------------------|


  Q  H.        W          W          Q  Q  H
|------------|----------|----------|------------*|
|-8----------|----------|----------|----8-------*|
|-7----------|----------|----------|----7-------*|
|-9----------|----------|----------|----9-------*|
|------------|----------|----------|----0-------*|
|------------|----------|----------|------------*|
Tap to rate this tab
# A B C D E F G H I J K L M N O P Q R S T U V W X Y Z