Song name
# A B C D E F G H I J K L M N O P Q R S T U V W X Y Z

Algernon Cadwallader - Spit Fountain tab

-------------------------------------------------------------------------------
		         SPIT FOUNTAIN - Algernon Cadwallader
-------------------------------------------------------------------------------
Tabbed by: Raphael Bastek
Email: raf_gpm@yahoo.com

Tuning: D A E A C# E

0:00-0:18ish

e |---------------------------------------------0------------------|
C#|---3---------------------3--------------------------------------|
A |-----4---------------0-----4------------------------------------|
E |-------5---------0h2---------5---------0h2/5--------------------|
A |-------------0h2-------------------0h2--------------------------|
D |-0-------2h4-----------0-------2h4------------------------------| X3

Sounds right to me. If I can figure out the rest of the song, I'll post it, too.
Tap to rate this tab
 
# A B C D E F G H I J K L M N O P Q R S T U V W X Y Z