Song name
# A B C D E F G H I J K L M N O P Q R S T U V W X Y Z

Ali Farka Toure - Ai Du tab

------------------------------------------------------------------------------
			     Ai Du - Ali Farka Toure
------------------------------------------------------------------------------
Tabbed by: Kievo


I know he did a lot of improvisations when he played this song live, but I 
just tabbed the intro of the recorded version. Enjoy it.
 

Tuning: Standard

e|------9----9/11---9--------------------------------------------------------|
B|-9/11---11----------11-9b----------------------------9---------------------|
G|--------------------------10-8-------------8----8/10---8---------8/9\8-----|
D|-------------------------------11-8~--8-11---11----------11-8-11-----------|
A|---------------------------------------------------------------------------|
E|---------------------------------------------------------------------------|

e|---------------------------------------------------------------------------|
B|---------------------------------------------------------------------------|
G|-------------------------6-------------------6---8/10-6-8-6-8-6------------|
D|-8-11-8--------------6/8-----10---6-8~---6/8--------------------8~---------|
A|--------11-8\6-4-----------8----8--------------8---------------------------|
E|-----------------6---------------------------------------------------------|

e|---------------------------------------------------------------------------|
B|------9-11-9-11-9----------------------------------11-9--------------------|
G|-8/10-------------8\6---------6-8-6-8/9-6-8-6-----------10-8-6-------------|
D|----------------------8~----8-----------------8----------------8-----------|
A|---------------------------------------------------------------------------|
E|---------------------------------------------------------------------------|

e|---------------------------------------------------------------------------|
B|--------------9------------------------------------------------------------|
G|---6-8-6-8/10---8\6-8-6----------------------------------------------------|
D|-8----------------------8--------------------------------------------------|
A|---------------------------------------------------------------------------|
E|---------------------------------------------------------------------------|



************************************

| /   slide up
| \   slide down
| ~   vibrato
| b   Bend

************************************


http://www.myspace.com/alifarkatoureofficial
Tap to rate this tab
 
# A B C D E F G H I J K L M N O P Q R S T U V W X Y Z