Song name
# A B C D E F G H I J K L M N O P Q R S T U V W X Y Z

Alice Cooper - Man Of The Year tab

Help us improve GuitareTab! Take a short survey!
intro:
-----------------------|
-----------------------|
-9--8--7---5--12-7-----|
-8--7--6---4--11-6-----|
-6--5--4---2--9--4-----|
-6--5--4---2--9--4-----|

verse 1:
--------------------------------|
--------------------------------|
--------------------------------|(x4)
--------------------------------|
--999999999000000000777777777---|
--777777777000000000555555555---|

chorus:(same as intro)
-----------------------|
-----------------------|
-9--8--7---5--12-7-----|
-8--7--6---4--11-6-----|
-6--5--4---2--9--4-----|
-6--5--4---2--9--4-----|

verse 2:
--------------------------------|
--------------------------------|
--------------------------------|(x4)
--------------------------------|
--999999999000000000777777777---|
--777777777000000000555555555---|

chorus:
-----------------------|
-----------------------|
-9--8--7---5--12-7-----|
-8--7--6---4--11-6-----|
-6--5--4---2--9--4-----|
-6--5--4---2--9--4-----|

after the second chorus:

-------------------------|
-------------------------|
-5----------------7------|(x3)
-5--let it ring---7-ring-|
-3----------------5------|
-------------------------|

--------------------------|
-12-10--------------------|
-------12-10--------------|
-------------12-----------|
--------------------------|
--------------------------|

---55555---4---------------------------------------------|
---55555-5-4---------------------------------------------|
---------5-----------------------------------------------|
---------------------------------------------------------|(x4)
---------------------------------------------------------|
---------------------------------------------------------|


-------------------------------------------------------------|
-------------------------------------------------------------|
--9-----------5----------------------------------------------|
--9-ring------5-ring---5-ring---9----------------------------|
--7-----------3--------5--------9-ring-----------------------|
-----------------------3--------7----------------------------|


---------------------------------------------------------|
---------------------------------------------------------|
---------------------------------------------------------|
--2-2-2-2-4-2--------------------------------------------|(x3)
--0-0-0-0-0-0--------------------------------------------|
---------------------------------------------------------|

---------------------|
---------------------|
---------------------|
--2------------------|
--0------------------|
---------------------|

-------------------------------------------------------|
-------------------------------------------------------|
--7-777-7-7--6-666-6-6---------------------------------|
--7-777-7-7--6-666-6-6---5-555-5-5--7-777-7-7----------|
--5-555-5-5--4-444-4-4---5-555-5-5--7-777-7-7----------|
-------------------------3-333-3-3--5-555-5-5----------|

chorus:
-----------------------|
-----------------------|
-9--8--7---5--12-7-----|
-8--7--6---4--11-6-----|
-6--5--4---2--9--4-----|
-6--5--4---2--9--4-----|

outro:
-----------------------------------------------|
---------------12-----10---12-10---------------|
--7---5-------------------------12-10----------|
--7---5-------------------------------12-10----|
--5---3-------------------------------------12-|
-----------------------------------------------|
Related for Man Of The Year tab