Guitaretab - guitar tabs
Song name
# A B C D E F G H I J K L M N O P Q R S T U V W X Y Z

Alice Cooper - Die For You tab

E --2---------2--------2--------------------------------------------
B ------3---------3--------3--------2---------3--------2------------
G ---------2---------2--------4---------2--------4---------2--------
D -------------------------------4---------4--------4---------4-----
A ------------------------------------------------------------------
E ------------------------------------------------------------------


E---------------------
B--2h3p2------2--3--0-
G----------2----------:2x              
D---------------------
A---------------------
E---------------------
[ Tab from: http://www.guitaretab.com/a/alice-cooper/52435.html ]
Related for Die For You tab