Song name
# A B C D E F G H I J K L M N O P Q R S T U V W X Y Z

Alice Cooper - Salvation tab

-------------------------------------------------------------------------------
			                  Salvation - Alice Cooper
-------------------------------------------------------------------------------
Tabbed by:Soccerguy
Email:colinpowell111@hotmail.com

Tuning: Standard
Chorus
e|---------------------------------------------------------------|
B|---------------------------------------------------------------|
G|-----5---5---5-----7-7p6---------------------------------------|
D|-2-5-5-5-5-5-5-5-7---------------------------------------------|
A|-2-5-3-5-3-5-3-5-7---------------------------------------------|
E|-0-3---3---3---3-5---------------------------------------------|

Solo
e|----------------|------|---------|-10p8p7-10p8p7--------|--------------|
B|--------8-8-7-5-|-3h5h7|-8-7-5---|--------------10p8p7h8|-8p7----------|
G|-6~-6p4--------6|------|------7-6|----------------------|----9p7--9p7p6|
D|-------6--------|------|---------|----------------------|-------10-----|
A|----------------|------|---------|----------------------|--------------|
E|----------------|------|---------|----------------------|--------------|

e|--------------------------------------------|
B|--------------------------------------------|
G|-4-5-6-7-7-7b-------------------------------|
D|-5-6-7-8-8-8b-------------------------------|
A|--------------------------------------------|
E|--------------------------------------------|




| /  slide up
| \  slide down
| h  hammer-on
| p  pull-off
| ~  vibrato
| +  harmonic
| x  Mute note
=============================================================================== 
Tap to rate this tab
 
# A B C D E F G H I J K L M N O P Q R S T U V W X Y Z