Song name
# A B C D E F G H I J K L M N O P Q R S T U V W X Y Z

Alice Cooper - Cold Ethyl tab

Song Title: Cold Ethyl
Album: Welcome To My Nightmare
Artist: Alice Cooper
Words and Music by Alice Cooper and Bob Ezrin

Intro
---------|-----------------|------------------|-----------------|-------------------|
---------|-----------------|------------------|-----------------|-------------------|
---------|-----------------|---------------5--|--------------5--|-------------------|
5--7--8--|--------5--4--3--|--------5--7-----|--------5--7-----|--------5--7--8-----|
---------|-----------------|---------------3--|--------------3--|-------------------|
3--5--6--|--------3--2--1--|--------3--5-----|--------3--5-----|--------3--5--6-----|
                                                        1.___________________
||:-----------------|-----------------|-----------------|-----------------:||
||:-----------------|-----------------|-----------------|-----------------:||
||:-----------------|--------------5--|--------------5--|-----------------:||
||:--------5--4--3--|--------5--7-----|--------5--7-----|--------5--7--8--:||
||:-----------------|--------------3--|--------------3--|-----------------:||
||:--------3--2--1--|--------3--5-----|--------3--5-----|--------3--5--6--:||
     one thing          I miss         is cold ethyl and her skeleton kiss
     We  met	        Last night     making love by the refrigerator light
     One thing          No Lie         Ethyl's frigid as an Eskimo Pie
     She's cool         in bed         there she oughta be
     One thing          it's true      cold Ethyl I am stuck on you
  And ev'rything is     my way         Ethyl don't have
2.________________ Dm                   F                       G
------------------|-----5-5---5-5------||5-----------5----------|-----3----3--3---3|
------------------|-----6-6---6-6------||6-----------6----------|-----5----5--3---5|
---------------6--|-----7-7---7-7------||5-----------5----------|-----5----5--4---5|
------------------|-----7-7---7-7------||7-----------7----------|-----5----5--5---5|
---------------4--|5-------------------||8-----------8----------|------------------|
------------------|--------------------||-----------------------|3-----------------|
refrigerator light  Ethyl Ethyl let me  squeeze you in my arms
cause Ethyl's dead
much to say                                                    1.2_______________
G                  Dm                   F          G            C
----3--3----------|-----5-5---5-5------||5----------3-----------|-----1----1--0---1|
----5--3----------|-----6-6---6-6------||6----------3-----------|-----1----1--1---1|
----5--4----------|-----7-7---7-7------||5----------4-----------|-----2----2--0---2|
----5--5----------|-----7-7---7-7------||7----------5-----------|-----3----3--2---3|
------------------|5-------------------||8----------5-----------|3-----------------|
------------------|--------------------||-----------3-----------|------------------|
                    Ethyl Ethyl come and freeze me with your charms
___________________   3.__________________________________________
                      C                                         2x
----1--0---------:||  ||:-----1----1--0-----1|----1--0----------:||
----1--1---------:||  ||:-----1----1--1-----1|----1--1----------:||
----2--0---------:||  ||:-----2----2--0-----2|----2--0----------:||
----3--2----5-7-8:||  ||:-----3----3--2-----3|----3--2----------:||
-----------------:||  ||:3-------------------|--------------0-3-:||
------------3-5-6:||  ||:--------------------|-----------3------:||
                                              Come here cold Ethyl
                          What makes you so cold
C                                                            1,2,3.________________
||:-----1----1--0----1|-1----1----0------|-----1----1--0----1|-1----1----0-------:||
||:-----1----1--1----1|-1----1----1------|-----1----1--1----1|-1----1----1-------:||
||:-----2----2--0----2|-2----2----0------|-----2----2--0----2|-2----2----0-------:||
||:-----3----3--2----3|-3----3----2------|-----3----3--2----3|-3----3----2-------:||
||:-------------------|--------------0-3-|-------------------|--------------0--3-:||
||:-------------------|-----------3------|-------------------|-----------3-------:||
       Cold Ethly   cold cold Ethyl           cold Ethyl  cold cold Ethyl
       Cold Ethly   cold cold Ethyl           cold Ethyl  cold cold Ethyl
     If I live till      ninety seven you'll still be waiting in refrigerator heaven
    'cause you're cool    you're ice       cold Ethyl you're my

-1----1---------|---------------|-------------|-----------|
-1----1---------|---------------|-------------|-----------|
-2----2---------|---------------|------------5|-----------|
-3----3----5-7-8|----------5-4-3|--------5-7--|-----------|
----------------|---------------|------------3|-----------|
-----------3-5-6|----------3-2-1|--------3-5--|-----------|
Tap to rate this tab
# A B C D E F G H I J K L M N O P Q R S T U V W X Y Z