Song name
# A B C D E F G H I J K L M N O P Q R S T U V W X Y Z

Alice In Chains - Choke tab

Just a quick throw together. There was no tab for this song yet and I wanted to learn 
it, so I figured it out. I haven't spoon fed the structure. That's easy enough to figure out.

Eb tuning

Intro/Verse

     Em Cadd9    G  Am  Em Cadd9
eb --0--3--------3--0--|-0--3------------------|
Bb --0--3--------3--1--|-0--3------------------|
Gb --0--0--------0--2--|-0--0------------------|
Db --2--2---x3---0--2--|-2--2--x2--------------|
Ab --2--3--------2--0--|-2--3------------------|
Eb --0-----------3-----|-0---------------------|

Intro solo
eb ----------------------------------|
Bb ----------------------------------|
Gb -------------------7~---5p4--4br--|
Db --7b-7-5~---4h5p4-----------------|
Ab -----------------5----------------|
Eb ----------------------------------|


eb ----------------------------------|
Bb ----------------------------------|
Gb -9/11-11-12p11-12/14---/16-16-17~-|
Db ----------------------------------|
Ab ----------------------------------|
Eb ----------------------------------|

Verse:
Em Cadd9 (x8)
Em Cadd9 (x2) G Am


CHORUS:
    Bm D  A  G
eb -2--2--0--3--------------------------|
Bb -3--3--2--3--------------------------|
Gb -4--2--2--0--------------------------|
Db -4--0--2--0--------------------------|
Ab -2-----0--2--------------------------|
Eb ----------3--------------------------|

Power chords:
   B5  D5 A5 G5
eb -------------------------------------|
Bb -------------------------------------|
Gb -4--7--------------------------------|
Db -4--7--7--5--------------------------|
Ab -2--5--7--5--------------------------|
Eb -------5--3--------------------------|


G transition into verse 2

    G5
eb ----------------------------------|
Bb ----------------------------------|
Gb ----------------------------------|
Db -5-5---5-5------------------------|
Ab -5-5---5-5------------------------|
Eb -3-3---3-3------------------------|


Start of verse 2 lead
eb ---------------------------------|
Bb ------17~------------------------|
Gb ---------------------------------|
Db --17~----------------------------|
Ab ---------------------------------|
Eb ---------------------------------|


G transition 2:
    G5
eb ---------------------------------|
Bb ---------------------------------|
Gb ---------------------------------|
Db -5-5---5-5-----------------------|
Ab -5-5---5-5--------2-05-----------|
Eb -3-3---3-3--3-2-3----------------|


End Solo progression
eb ---------------------------------|
Bb ---------------------------------|
Gb ---------------------------------|
Db -4--7--9---5---------------------|
Ab -4--7--9---5---------------------|
Eb -2--5--7---3---------------------|


End solo
eb -------------------------------------------------|
Bb -----------19b-19---------------------6br--------|
Gb -18-17-14--------------4br-4br-----------76-76---|
Db --------------------------------4----------------|
Ab -------------------------------------------------|
Eb -------------------------------------------------|

Doubled guitar 1 octave lower
eb ---------------------------------|
Bb -----------7b(10)-7--------------|
Gb -6--5--4-------------------------|
Db ---------------------------------|
Ab ---------------------------------|
Eb ---------------------------------|
Tap to rate this tab
# A B C D E F G H I J K L M N O P Q R S T U V W X Y Z