Song name
# A B C D E F G H I J K L M N O P Q R S T U V W X Y Z

Alice In Chains - Brush Away tab

Alice In Chains - Brush Away
Submitted By: Sqweeky
EMail: Blindside831@aol.com
Transcribed by - Alistair Mckellan


Ok - I *think* we are the usual 1/2 step down (Eb)....

But tune low E string down to what would be D (now Db?)Intro - and verse riff

|---------------------|

|---------------------|

|----------------6----|     <== guitar 1

|---6---5_6_5-6-------|

|-4---4--------4------|

|---------------------|

(lead w/ vocals)

|-----3^4^3-4------------------| <===guitar 2

|------------------------------|

|------------------------------|

|-----5^6^5-6------------------| <== guitar 3

|------------------------------|

|------------------------------|Chorus - (as *close* as i can get it)

Heavy palm mutes....

|------------------------------------|------------------------------------|

|------------------------------------|------------------------------------|

|------------------------------------|------------------------------------|

|------------------------------------|---------------2-2-4-4-4-4-4-4-4-4--|

|-2-4-4-5-5-2-2-0-0-4-4-4-4-4-4-4-4--|-2-4-4-5-5-2-2-0-0-2-2-2-2-2-2-2-2--|

|-2-4-4-5-5-2-2-0-0-4-4-4-4-4-4-4-4--|-2-4-4-5-5-2-2----------------------|Ok the solo is like backwards!! im not gonna tab that yet because

it's damn wierd. This is as much as I can do just now - though the

solo will arrive soon I'll ask Jerry next time I see him   =)
Tap to rate this tab
# A B C D E F G H I J K L M N O P Q R S T U V W X Y Z