Guitaretab - guitar tabs
Song name
# A B C D E F G H I J K L M N O P Q R S T U V W X Y Z

Alice In Chains - Down In A Hole Acoustic tab

Song: Down in a Hole
Artist: Alice in Chains
Album: Unplugged

Tabbed by Jarred B.

I noticed there was no tabs on the site for this version of the song so here it is. This
is my first attempt at a tab. I think im pretty close to correct but if you disagree then
share your corrections instead of complaining about it. This is one of my all-time fave
songs. Enjoy.

Guitar I - Jerry Cantrell - Acoustic
Guitar II - Scott Olson - Acoustic

[Intro and Verse] - Guitar I

e  --------------------------3--------2------2-----|
B o-0h1----------1------------3---------3----------|
G ------2-----------2----------0----------2--------|
D ---------2-------------------------0-------------|
A o-0---------0------------------------------------|
E  --------------------------3---------------------|
   "Bur -               y   me          softly in this
   womb"

[Prechorus] (Strumming pattern not tabbed)

Guitar I

|------------------3------------2------------------|
|o-----------------3------------3------------------| o
|------------------0------------2------------------|
|--9--10-9--7---- 0------------0-------------------|
|o-0--0--0--0--- -2--------------------------------| o
|------------------3-------------------------------|

Guitar II

[ Tab from: http://www.guitaretab.com/a/alice-in-chains/61458.html ]
|--0-----------3----------------2----------------|
|--0-1-0-------3----------------3----------------|
|--2------2----0----------------2----------------|
|--2-----------0----------------0----------------|
|--0-----------2---------------------------------|
|--------------3---------------------------------|
"Down...      don't...         I can be saved."

[Chorus] (Strumming pattern not tabbed)

Guitar I

|-------------------------3------------2--------------|
|-------------------------3------------3--------------|
|---9-10-9-7--7h9p7-------0------------2--------------|
|---0--0-0-0--------------0------------0--------------|
|-------------------------2---------------------------|
|-------------------------3---------------------------|

Guitar II

|--0--1--0--0--0------0---------------0---0------|
|--3--3--3--3----3-3------3----3--------3--------|
|--2--2--2--2------0-----------0-----------------|
|------------------2-----------0-----------------|
|------------------3-----------2-----------------|
|------------------------------3-----------------|
   "Down  in a  hole
    Feelin so small
    Down in a hole
    Losing con-trol"

Played during last chorus by Guitar II.
|-------13--------12----------10-------------|
|----15--------15----------13----------------|
|-14--------14----------12---------7h9p7-----|
|--------------------------------------------|
|--------------------------------------------|
|--------------------------------------------|

[Post chorus] (Strumming pattern not tabbed)

Guitar I & 2

|2-----0-----1-----------------|
|3-----0-----1-----------------|
|2-----1-----2-----3-----------|
|0-----2-----3-----3----3----1-|
|------2-----3-----5----3----1-|
|------0-----1----------5----3-|
"I'd     like     to     fl-      y     but"
Related for Down In A Hole Acoustic tab
Down In A Hole Acoustic chords by Alice In Chains