Song name
# A B C D E F G H I J K L M N O P Q R S T U V W X Y Z

Alive In Wild Paint - Traffic tab

Artist: Alive In Wild Paint
Song: Traffic
Album: Ceilings
Tabbed by: Kmilongo (kmilo1989@gmail.com)

Standard tuning, capo on 1st fret.

Verse

E||--------------0-----------|--2-----------0-----------||
B||--1-----------------1-----|--------1-----------1-----||
G||--------2--------2-----0--|-----0-----0-----0-----0--||
D||-----2-----2--------------|--------------------------||
A||--0-----------0-----------|--3-----------3-----------||
E||--------------------------|--------------------------|| x4

Interlude

E||--2---3---0----------||
B||--3---3---1----------||
G||--2---2---2----------||
D||--0---0---2--(hold)--||
A||---------------------||
E||---------------------|| x2

Then

E||--2---3----------||
B||--3---3----------||
G||--2---2----------||
D||--0---0--(mute)--||
A||-----------------||
E||-----------------||

Chorus

E||--7-----7-----7-----7-----|--2-----2-----2-----2-----|
B||-----8-----8-----8-----8--|-----3-----3-----3-----3--|
G||--------------------------|--------------------------|
D||--------------------------|--------------------------|
A||--------------------------|--------------------------|
E||--------------------------|--------------------------|


--2-----2-----2-----2-----|--0-----0-----0-----0-----||
-----1-----1-----1-----1--|-----1-----1-----1-----1--||
--------------------------|--------------------------||
--------------------------|--------------------------||
--------------------------|--------------------------||
--------------------------|--------------------------||

E||--7-----7-----7-----7-----|--2-----2-----2-----2-----|
B||-----8-----8-----8-----8--|-----3-----3-----3-----3--|
G||--------------------------|--------------------------|
D||--------------------------|--------------------------|
A||--------------------------|--------------------------|
E||--------------------------|--------------------------|


--2-----2-----2-----2-----|--0-----0-----0--(hold)--||
-----1-----1-----1-----1--|-----1-----1-------------||
--------------------------|-------------------------||
--------------------------|-------------------------||
--------------------------|-------------------------||
--------------------------|-------------------------||

Repeat the verse, interlude, and chorus.
The last chorus has a slight variation at the end, though.

E||--7-----7-----7-----7-----|--2-----2-----2-----2-----|
B||-----8-----8-----8-----8--|-----3-----3-----3-----3--|
G||--------------------------|--------------------------|
D||--------------------------|--------------------------|
A||--------------------------|--------------------------|
E||--------------------------|--------------------------|


--2-----2-----2-----2-----|--0-----0-----0-----0-----||
-----1-----1-----1-----1--|-----1-----1-----1-----1--||
--------------------------|--------------------------||
--------------------------|--------------------------||
--------------------------|--------------------------||
--------------------------|--------------------------|| x3

Then

E||--7-----7-----7-----7-----|--2-----2-----2-----2-----|
B||-----8-----8-----8-----8--|-----3-----3-----3-----3--|
G||--------------------------|--------------------------|
D||--------------------------|--------------------------|
A||--------------------------|--------------------------|
E||--------------------------|--------------------------|


--2-----2-----2-----2-----|--0--(hold)----||
-----1-----1-----1-----1--|---------------||
--------------------------|---------------||
--------------------------|---------------||
--------------------------|---------------||
--------------------------|---------------||




In case you want the chords, here they are!

       Am          Am7        Cadd11+       C
E||-----0-----|-----0-----|-----2-----|-----0-----|
B||-----1-----|-----1-----|-----1-----|-----1-----|
G||-----2-----|-----0-----|-----0-----|-----0-----|
D||-----2-----|-----2-----|-----x-----|-----2-----|
A||-----0-----|-----0-----|-----3-----|-----3-----|
E||-----------|-----------|-----------|-----------|


     D         Dsus4         G          Am6
-----2-----|-----3-----|-----3-----|-----2-----|
-----3-----|-----3-----|-----3-----|-----1-----|
-----2-----|-----2-----|-----0-----|-----2-----|
-----0-----|-----0-----|-----0-----|-----2-----|
-----------|-----------|-----2-----|-----0-----|
-----------|-----------|-----3-----|-----------|


Verse:

Am            Am7 Cadd11+ C
Fools rushing o----ut and in
       Am               Am7 Cadd11+   C
Like a pool cue through f---ingers split
    Am     Am7  Cadd11+ C
And merge the tra-------ffic
Am                       Am7 Cadd11+ C
Separate indulgence from the a-------ddicts


Interlude:

D   Dsus4 Am
Couldn't  help themselves
D   Dsus4 Am
Couldn't  help myself


Chorus:

D   Dsus4   G     D                   Am6   Am
Couldn't... make enough to share with you
           G     D                   Am6   Am
I couldn't make enough to share with you


Verse:

Am                 Am7 Cadd11+ C
Crawls out from betw---een my  teeth
Am            Am7 Cadd11+  C
And infests our bo---------dy
Am              Am7 Cadd11+  C
Kiss those imperfections     clean
    Am          Am7  Cadd11+   C
But they don't rinse out


Interlude:

D Dsus4 Am
Gonna   cut them out
D Dsus4 Am
Gonna   cut myself


Verse:

D Dsus4  G     D                   Am6   Am
Gonna... make enough to share with you
          G     D                   Am6   Am
I'm gonna make enough to share with you
          G     D                   Am6   Am
I'm gonna make enough to share with you
          G     D                   Am6   Am (hold)
I'm gonna make enough to share with you
(hold)
I'm gonna cut this out
Tap to rate this tab
 
# A B C D E F G H I J K L M N O P Q R S T U V W X Y Z