Song name
# A B C D E F G H I J K L M N O P Q R S T U V W X Y Z

Alkaline Trio - Heaven tab

Help us improve GuitareTab! Take a short survey!
ALKALINE TRIO
HEAVEN
ANOTHER YEAR ON THE STREETS volume 3

work out the strumming pattern

INTRO
e|--------------------|
B|--5-------8-5-------|
G|----5-0-5-----5-0---|
D|--------------------|
A|--------------------|
E|--------------------|

CHORUS
e|---------------|
B|---------------|
G|-5-4-2-----5---|
D|-5-4-2-5-3-5---|
A|-3-2-0-5-3-3---|
E|-------3-1-----|

VERSE
e|-------|
B|-------|
G|----5--|
D|-3--5--|
A|-3--3--|
E|-1-----|

CHORUS

BRIDGE
e|------------------|
B|------------------|
G|-5--7--9--10--9---|
D|-x--x--x--x---x---|
A|-3--5--7--8---7---|
E|------------------|

VERSE

CHORUS

END ON
e|-----|
B|-----|
G|--5--|
D|--5--|
A|--3--|
E|-----|

For corrections email me at e_mericana@hotmail.com
Related for Heaven tab