Guitaretab - guitar tabs
Song name
# A B C D E F G H I J K L M N O P Q R S T U V W X Y Z

Alkaline Trio - Burn tab

Only one day after the release, and I got it here.  Darn all those downloader that got
to this first!  100% correct, I'm almost positive.


Band:       The Alkaline Trio
Song:       Burn
Album:      Crimson
Tuning:     Standard


Intro:

----------------------------------------------------------------------|
----------------------------------------------------------------------|
--------------11-11--99------------88--99-----------------------------|
-----66--66---11-11--99----66--66--88--99-----------------------------|X3
-----66--66----9--9--77----66--66--66--77-----------------------------|
-----44--44----------------44--44-------------------------------------|


Intro End:

---------------------------------------------------------------------------|
---------------------------------------------------------------------------|
---------------------------------------------------------------------------|
-----66--66--66------------------------------------------------------------|
-----66--66--66------------------------------------------------------------|
-----44--44--44------------------------------------------------------------|

Verse: (same as intro)

----------------------------------------------------------------------|
----------------------------------------------------------------------|
--------------11-11--99------------88--99-----------------------------|
-----66--66---11-11--99----66--66--88--99-----------------------------|X2
-----66--66----9--9--77----66--66--66--77-----------------------------|
-----44--44----------------44--44-------------------------------------|

Verse End:

----------------------------------------------------------------------|
----------------------------------------------------------------------|
----------------------------------------------------------------------|
-----66--66--66---66666XXX--------------------------------------------|
-----66--66--66---66666XXX--------------------------------------------|
-----44--44--44---44444XXX--------------------------------------------|
                    Intending to...
Chorus:

-----------------------------------------------------------------------|
-----------------------------------------------------------------------|
-----------------------------------------------------------------------|
--22222222-------------6666---4444-------------------------------------|X3
--22222222-------------6666---4444-------------------------------------|
--00000000-------------4444---2222-------------------------------------|
burn. Pretending to fight and everyone...

Chorus End:

-----------------------------------------------------------------------|
-----------------------------------------------------------------------|
-----------------------------------------------------------------------|
--22222222-----4444----5555--------------------------------------------|
--22222222-----4444----5555--------------------------------------------|
--00000000-----2222----3333--------------------------------------------|


After-Chorus (Pre Verse)

-----------------------------------------------------------------------
-----------------------------------------------------------------------
---------------------------------------------------8-X-8-X-8/9---------
----66---66---------66---66---------66---66--------8-X-8-X-8/9-(hold)--
----66---66---------66---66---------66---66--------6-X-6-X-6/7---------
----44---44---------44---44---------44---44----------------------------

 
Verse 2:  Same as First
Chorus 2: Same as First

Bridge:

Now, I'm tabbing this out just in case you don't have a piano on you.  Well,
that and the fact that it's used with guitar after the 3rd chorus.

-----------------------------------------------------------------------|
-----------------------------------------------------------------------|
--------------4--------------------------------------------------------|
---6----------4---------------2------4---------------------------------|
---6----------2---------------2------4---------------------------------|
---4--------------------------0------2---------------------------------|
Like hell we are anxiously waiting

[ Tab from: http://www.guitaretab.com/a/alkaline-trio/135599.html ]
------------------------------------------------------------------------|
------------------------------------------------------------------------|
--------------4---------------------------------------------------------|
---6----------4---------------2-----------------------------------------|
---6----------2---------------2-----------------------------------------|
---4--------------------------0-----------------------------------------|
Like hell burning silently strong


-----------------------------------------------------------------------|
-----------------------------------------------------------------------|
--------------4--------------------------------------------------------|
---6----------4---------------2------4---------------------------------|
---6----------2---------------2------4---------------------------------|
---4--------------------------0------2---------------------------------|
Somehow we fell down by the wayside


-----------------------------------------------------------------------|
-----------------------------------------------------------------------|
-----------------------------------------------------------------------|
---2----------------------4--------------------------------------------|
---2----------------------4--------------------------------------------|
---0----------------------2--------------------------------------------|
And somehow this hell is home....as we...

Chorus:

-----------------------------------------------------------------------|
-----------------------------------------------------------------------|
-----------------------------------------------------------------------|
--22222222-------------6666---4444-------------------------------------|X3
--22222222-------------6666---4444-------------------------------------|
--00000000-------------4444---2222-------------------------------------|
burn. Pretending to fight and everyone...

Chorus End:

-----------------------------------------------------------------------|
-----------------------------------------------------------------------|
-----------------------------------------------------------------------|
--22222222-----4444----5555--------------------------------------------|
--22222222-----4444----5555--------------------------------------------|
--00000000-----2222----3333--------------------------------------------|


-----------------------------------------------------------------------|
-----------------------------------------------------------------------|
--------------4444-----------------------------------------------------|
---6666-------4444------------2222------4444---------------------------|
---6666-------2222------------2222------4444---------------------------|
---4444-----------------------0000------2222---------------------------|
Like hell we are anxiously waiting


------------------------------------------------------------------------|
------------------------------------------------------------------------|
--------------4444------------------------------------------------------|
---6666-------4444------------2-----------------------------------------|
---6666-------2222------------2-----------------------------------------|
---4444-----------------------0-----------------------------------------|
Like hell burning silently strong


-----------------------------------------------------------------------|
-----------------------------------------------------------------------|
--------------4444-----------------------------------------------------|
---6666-------4444------------2222------4444---------------------------|
---6666-------2222------------2222------4444---------------------------|
---4444-----------------------0000------2222---------------------------|
Somehow we fell down by the wayside


-----------------------------------------------------------------------|
-----------------------------------------------------------------------|
-----------------------------------------------------------------------|
---2222222---------------44444444--------------------------------------|
---2222222---------------44444444--------------------------------------|
---0000000---------------22222222--------------------------------------|
And somehow this hell is home


-----------------------------------------------------------------------|
-----------------------------------------------------------------------|
-----------------------------------------------------------------------|
---2222222---------------4444--5555------------------------------------|
---2222222---------------4444--5555------------------------------------|
---0000000---------------2222--3333------------------------------------|
Right now this hell is my home


Outro:

--------------------------|
--------------------------|
--------------------------|
--66-XXXX-66-XXXX--2------| Repeat this until while song fades out.
--66-XXXX-66-XXXX--2------|
--44-XXXX-44-XXXX--0------|

There you have it, the entire tab for the Trio's probably best song off of Crimson.  
Hope you enjoy it, I know I enjoyed tabbing it.
Related for Burn tab
Burn chords by Alkaline Trio