Song name
# A B C D E F G H I J K L M N O P Q R S T U V W X Y Z

Alkaline Trio - Radio tab

Alkaline Trio - Radio

*Intro*  
e|------------------------------------------------------------------------| 
B|------------------------------------------------------------------------|
G|------11----11-----9-----7-----9/11-----11----11---------9-------9------|
D|--0-0---0-0---0-0----0-0---0-0------9-9---9-9---9-0--7-7---7---7---7----|
A|-------------------------------------------------------------0----------|
E|------------------------------------------------------------------------|
                                                                           
e|------------------------------------------------------------------------|
B|-----------------------------------------------------o-~-~-~-~-~-~-~----|
G|------11----11-----9-----7-----9/11-----11----11-----9-~-~-~-~-~-~-~----|
D|--0-0---0-0---0-0----0-0---0-0------9-9---9-9---9-0--7-let-ring~-~-~----|
A|------------------------------------------------------------------------|
E|------------------------------------------------------------------------|
                                                                           
*Verse*                                                      
e|------------------------------------------------------------------------|
B|--7-7-7-7-7-7-7-7-------------------------------------------------------|
G|--7-7-7-7-7-7-7-7--9-9-9-9-7-7-7-7--------------------------------------|
D|--7-7-7-7-7-7-7-7--7-7-7-7-7-7-7-7--9-9-9-9-9-9-9-9--7-7-7-7-7-7-7-7----|
A|--5-5-5-5-5-5-5-5--5-5-5-5-5-5-5-5--9-9-9-9-9-9-9-9--7-7-7-7-7-7-7-7----|
E|------------------------------------7-7-7-7-7-7-7-7--5-5-5-5-5-5-5-5----|
                                                                              
*Transition*                                                               
e|------------------------------------------------------------------------|
B|------------------------------------------------------------------------|
G|------------------------------------------------------------------------|
D|--5-5-5-5-5-5-5-5--5-5-5-5---7-~-~--------------------------------------|
A|--5-5-5-5-5-5-5-5--5-5-5-5---7-letring----------------------------------|
E|--3-3-3-3-3-3-3-3--3-3-3-3---5-~-~--------------------------------------|

*Chorus* (med. dist.)
e|------------------------------------------------------------------------|
B|------------------------------------------------------------------------|
G|--7-7-7-7-7-7-7-7-------------------7-7-7-7-7-7-7-7---------------------| 
D|--7-7-7-7-7-7-7-7--7-7-7-7-7-7-7-7--7-7-7-7-7-7-7-7--9-9-9-9-7-7-7-7----| 
A|--5-5-5-5-5-5-5-5--7-7-7-7-7-7-7-7--5-5-5-5-5-5-5-5--9-9-9-9-7-7-7-7----|
E|-------------------5-5-5-5-5-5-5-5-------------------7-7-7-7-5-5-5-5----|

e|------------------------------------------------------------------------|
B|------------------------------------------------------------------------|
G|--7-7-7-7-7-7-7-7-------------------7-7-7-7-7-7-7-7---------------------|
D|--7-7-7-7-7-7-7-7--7-7-7-7-7-7-7-7--7-7-7-7-7-7-7-7--9-9-9-9-7-7-7-7----|
A|--5-5-5-5-5-5-5-5--7-7-7-7-7-7-7-7--5-5-5-5-5-5-5-5--9-9-9-9-7-7-7-7----|
E|-------------------5-5-5-5-5-5-5-5-------------------7-7-7-7-5-5-5-5----|

e|------------------------------------------------------------------------|
B|------------------------------------------------------------------------|
G|------------------------------------------------------------------------|
D|--5-5-5-5-5-5-5-5--5-5-5-5-5-5-5-5--5-5-5-5-5-5-5-5--7-~-~-~-~-~-~-~----|
A|--5-5-5-5-5-5-5-5--5-5-5-5-5-5-5-5--5-5-5-5-5-5-5-5--7-let-ring~-~-~----|
E|--3-3-3-3-3-3-3-3--3-3-3-3-3-3-3-3--3-3-3-3-3-3-3-3--5-~-~-~-~-~-~-~----|

*Outro*  (below e=11 t=12)
e|------------------------------------------------------------------------|
B|------------------------------------------------------------------------|
G|--e-e-e-e-e-e-e-e--t-t-t-t-e-e-e-e--t-t-t-t-e-e-e-e--9-9-9-9-9-9-9-9----|
D|--0-0-0-0-0-0-0-0--0-0-0-0-0-0-0-0--0-0-0-0-0-0-0-0--0-0-0-0-0-0-0-0----|
A|------------------------------------------------------------------------|
E|------------------------------------------------------------------------|

e|------------------------------------------------------------------------|
B|------------------------------------------------------------------------|
G|--e-e-e-e-e-e-e-e--t-t-t-t-e-e-e-e--t-t-t-t-e-e-e-e--9-9-9-9-9-9-9-9----|
D|--0-0-0-0-0-0-0-0--0-0-0-0-0-0-0-0--0-0-0-0-0-0-0-0--0-0-0-0-0-0-0-0----|
A|------------------------------------------------------------------------|
E|------------------------------------------------------------------------|

e|------------------------------------------------------------------------|
B|------------------------------------------------------------------------|
G|--7-7-7-7-7-7-7-7--7-7-7-7-9-~-~-~--------------------------------------|
D|--0-0-0-0-0-0-0-0--0-0-0-0-0-let-ring-----------------------------------|
A|-----------------------------~-~-~--------------------------------------|
E|------------------------------------------------------------------------|

*outline*

{Intro}         x 2
{Verse}         x 4
{Transition}    x 1
{Intro}         x 1
{Verse}         x 4
{Transition}    x 1
{Chorus}        x 1
{Intro}         x 1
{Verse}         x 4
{Transition}    x 1
{Chorus}        x 1
{1st line of Int}  x 2
{Outro}         x 1
Tap to rate this tab
 
# A B C D E F G H I J K L M N O P Q R S T U V W X Y Z