Song name
# A B C D E F G H I J K L M N O P Q R S T U V W X Y Z

Alkaline Trio - Time To Waste Acoustic tab

The other versions are either incomplete or in the wrong key, so I tabbed this version,
should be 99.9% correct.  E-mail me at nrlsky1@yahoo.com or AIM me at q67 if you have
or want another tab done.  Please rate and comment.


CAPO 2

e|------3-----2-----0-----------3-------2-------0----|
B|----0--0--0--0-0---0--0----1---0--0----0--0----0-0-|
G|---0----0-----0-----0-----0------0------0-------0--|x 4
D|--2----------------------2-------------------------|
A|-2----------------------3--------------------------|
E|---------------------------------------------------|


Play the following twice

e|--0-0-0--3-3-3-3-3--2-2-2--0-0-0-0-0---0-0-0--3-3-3-3-3--2-2-2--0-0-0-0-0--|
b|--0-0-0--0-0-0-0-0--0-0-0--0-0-0-0-0---1-1-1--1-1-1-1-1--1-1-1--1-1-1-1-1--|
G|--4-4-4--4-4-4-4-4--4-4-4--4-4-4-4-4---0-0-0--0-0-0-0-0--0-0-0--0-0-0-0-0--|
D|--4-4-4--4-4-4-4-4--4-4-4--4-4-4-4-4---2-2-2--2-2-2-2-2--2-2-2--2-2-2-2-2--|
A|--2-2-2--2-2-2-2-2--2-2-2--2-2-2-2-2---3-3-3--3-3-3-3-3--3-3-3--3-3-3-3-3--|
E|--0-0-0--0-0-0-0-0--0-0-0--0-0-0-0-0---0-0-0--0-0-0-0-0--0-0-0--0-0-0-0-0--|


Em                                         D
There's someone down below blowing you a kiss.

They watch from their windows
Em
As all arms fall to their sides,
               D
And all eyes fix on the death of tomorrow.
Em                 F#       G
And you found everything you need
                 Em
To make a life complete.
D
Completely revolting.
               Em           F#        G           C
And they have safety and relief for sale up the street
              D     C
I see you in line everyday

G                 Em     C
You had time to waste, but I'm not sorry.
G              Em     C
Such a basket case, hide the cutlery.
G          Em         C
I had time to kill, It's dead and buried.
G                  Em              C
You've got guts to spill, but no one's trust-worthy.

Interlude:

Em    D    Em   F#    D


Em                                        D
These creatures are waking up in these dark trees.

Awaiting like vultures.
     Em                                       D
And eyes rolled back turned white in time to feed
                       Em       F#         G
A salivating hunger...for you, and everything they need
                   Em            D
To make a death complete... completely unnatural.
      Em                  F#         G
The salvation lies,  behind those dead eyes
      C                      D           C
And watched you while you sleep every night and...


G                 Em    C
You had time to waste, but I'm not sorry.
G              Em      C
Such a basket case, hide the cutlery.
G             Em      C
I had time to kill, It's dead and buried.
G                  Em              C
You've got guts to spill, but no one's trust-worthy.

e|------3-----2-----0-----------3-------2-------0----|
B|----0--0--0--0-0---0--0----1---0--0----0--0----0-0-|
G|---0----0-----0-----0-----0------0------0-------0--|x 2
D|--2----------------------2-------------------------|
A|-2----------------------3--------------------------|
E|---------------------------------------------------|


e|--0-0-0--3-3-3-3-3--2-2-2--0-0-0-0-0---0-0-0--3-3-3-3-3--2-2-2--0-0-0-0-0--|
b|--0-0-0--0-0-0-0-0--0-0-0--0-0-0-0-0---1-1-1--1-1-1-1-1--1-1-1--1-1-1-1-1--|
G|--4-4-4--4-4-4-4-4--4-4-4--4-4-4-4-4---0-0-0--0-0-0-0-0--0-0-0--0-0-0-0-0--|
D|--4-4-4--4-4-4-4-4--4-4-4--4-4-4-4-4---2-2-2--2-2-2-2-2--2-2-2--2-2-2-2-2--|
A|--2-2-2--2-2-2-2-2--2-2-2--2-2-2-2-2---3-3-3--3-3-3-3-3--3-3-3--3-3-3-3-3--|
E|--0-0-0--0-0-0-0-0--0-0-0--0-0-0-0-0---------------------------------------|

e|--0-0-0--3-3-3-3-3--2-2-2--0-0-0-0-0---0-0-0--3-3-3-3-3--2-2-2--2-ring--0--|
b|--0-0-0--0-0-0-0-0--0-0-0--0-0-0-0-0---1-1-1--1-1-1-1-1--1-1-1--3-ring--1--|
G|--6-6-6--6-6-6-6-6--6-6-6--6-6-6-6-6---0-0-0--0-0-0-0-0--0-0-0--2-ring--2--|
D|--6-6-6--6-6-6-6-6--6-6-6--6-6-6-6-6---2-2-2--2-2-2-2-2--2-2-2--0-ring--0--|
A|--4-4-4--4-4-4-4-4--4-4-4--4-4-4-4-4---3-3-3--3-3-3-3-3--3-3-3----------3--|
E|---------------------------------------------------------------------------|


G                 Em    C
You had time to waste, but I'm not sorry.
G              Em      C
Such a basket case, hide the cutlery.
G             Em      C
I had time to kill, It's dead and buried.
G                  Em              C
You've got guts to spill, but no one's trust-worthy.
Tap to rate this tab
# A B C D E F G H I J K L M N O P Q R S T U V W X Y Z