Guitaretab - guitar tabs
Song name
# A B C D E F G H I J K L M N O P Q R S T U V W X Y Z

Alkaline Trio - Help Me tab

Help Me
Alkaline Trio
Guitar Tab

Intro  Piano doubled by Guitar Two


e|-14--14--14--14--|-14--14--14--14--|-14--14--14--14--|-14--14--14--14--|
B|---12--12--12--12|---12--12--12--12|---12--12--12--12|---12--12--12--12|
G|-----------------|-----------------|-----------------|-----------------|
D|-----------------|-----------------|-----------------|-----------------|
A|-----------------|-----------------|-----------------|-----------------|
E|-----------------|-----------------|-----------------|-----------------|
 | 1 + 2 + 3 + 4 +   1 + 2 + 3 + 4 +   1 + 2 + 3 + 4 +   1 + 2 + 3 + 4 +
 |
 |Guitar One
e|-----------------|-----------------|-----------------|-----------------|
B|-----------------|-----------------|-----------------|-----------------|
G|-----------------|-----------------|-4-4-4-4-4-4-4-4-|-4-4-4-4-4-4-4-4-|
D|-----------------|-----------------|-4-4-4-4-4-4-4-4-|-4-4-4-4-4-4-4-4-|
A|-----------------|-----------------|-2-2-2-2-2-2-2-2-|-X-X-X-X-X-X-X-X-|
E|-----------------|-----------------|-----------------|-4-4-4-4-2-2-2-2-|
   1 + 2 + 3 + 4 +   1 + 2 + 3 + 4 +   1 + 2 + 3 + 4 +   1 + 2 + 3 + 4 +


e|-14--14--14--14--|-14--14--14--14--|-14--14--14--14--|-14--14--14--14--|
B|---12--12--12--12|---12--12--12--12|---12--12--12--12|---12--12--12--12|
G|-----------------|-----------------|-----------------|-----------------|
D|-----------------|-----------------|-----------------|-----------------|
A|-----------------|-----------------|-----------------|-----------------|
E|-----------------|-----------------|-----------------|-----------------|
 | 1 + 2 + 3 + 4 +   1 + 2 + 3 + 4 +   1 + 2 + 3 + 4 +   1 + 2 + 3 + 4 +
 |
 |
e|-----------------|-----------------|-----------------|-----------------|
B|-----------------|-----------------|-----------------|-----------------|
G|-4-4-4-4-4-4-4-4-|-4-4-4-4-4-4-4-4-|-4-4-4-4-4-4-4-4-|-4-4-4-4-4-4-4-4-|
D|-4-4-4-4-4-4-4-4-|-4-4-4-4-4-4-4-4-|-4-4-4-4-4-4-4-4-|-4-4-4-4-4-4-4-4-|
A|-2-2-2-2-2-2-2-2-|-X-X-X-X-X-X-X-X-|-2-2-2-2-2-2-2-2-|-X-X-X-X-X-X-X-X-|
E|-----------------|-4-4-4-4-2-2-2-2-|-----------------|-4-4-4-4-2-2-2-2-|
   1 + 2 + 3 + 4 +   1 + 2 + 3 + 4 +   1 + 2 + 3 + 4 +   1 + 2 + 3 + 4 +


e|-----------------|-----------------|
B|{12}-------------|-----------------|
G|-----------------|-----------------|
D|-*feedback at a -|-----------------|
A|--pitch of b but-|-----------------|
E|--just play harm.|-----------------|
 | 1 + 2 + 3 + 4 +   1 + 2 + 3 + 4 +  
 |
 |
e|-----------------|-----------------|
B|-----------------|-----------------|
G|-----------------|-----------------|
D|-2-2-2-2-2-2-2-2-|-4-4-4-4-4-4-4-4-|
A|-2-2-2-2-2-2-2-2-|-4-4-4-4-4-4-4-4-|
E|-0-0-0-0-0-0-0-0-|-2-2-2-2-2-2-2-2-|
   1 + 2 + 3 + 4 +   1 + 2 + 3 + 4 +  



Verse  -        Here you'll find me in between 
		Heaven and hell my dear where nothings what it seems 
		It's just as well I fear I'm giving you the creeps 
		And a farewell kiss to go into the unknown 
		Saw you standing there 
		Outside the music hall, you come out for some air 
		Uncertain curtain call and everyone just stared 
		When you took the stage that night 
		Somethings not right 

- Guitar One

e|-----------------|-----------------|-----------------|-----------------|
B|-----------------|-----------------|-----------------|-----------------|
G|-4-4-4-----4-4-4-|-4-4-4-4-4-4-4-4-|-4-4-4-----4-4-4-|-4-4-4-4-4-4-4-4-|
D|-4-4-4-----4-4-4-|-4-4-4-4-4-4-4-4-|-4-4-4-----4-4-4-|-4-4-4-4-4-4-4-4-|
A|-2-2-2-----2-2-2-|-X-X-X-X-X-X-X-X-|-2-2-2-----2-2-2-|-X-X-X-X-X-X-X-X-|
E|-----------------|-4-4-4-4-2-2-2-2-|-----------------|-4-4-4-4-2-2-2-2-|
   1 + 2 + 3 + 4 +   1 + 2 + 3 + 4 +   1 + 2 + 3 + 4 +   1 + 2 + 3 + 4 +


e|-----------------|-----------------|-----------------|-----------------|
B|-----------------|-----------------|-----------------|-----------------|
G|-4-4-4-----4-4-4-|-4-4-4-4-4-4-4-4-|-----------------|-----------------|
D|-4-4-4-----4-4-4-|-4-4-4-4-4-4-4-4-|-2-2-2-2-2-2-2-2-|-4-4-4-4-4-4-4-4-|
A|-2-2-2-----2-2-2-|-X-X-X-X-X-X-X-X-|-2-2-2-2-2-2-2-2-|-4-4-4-4-4-4-4-4-|
E|-----------------|-4-4-4-4-2-2-2-2-|-0-0-0-0-0-0-0-0-|-2-2-2-2-2-2-2-2-|
   1 + 2 + 3 + 4 +   1 + 2 + 3 + 4 +   1 + 2 + 3 + 4 +   1 + 2 + 3 + 4 +


e|-----------------|-----------------|-----------------|-----------------|
B|-----------------|-----------------|-----------------|-----------------|
G|-4-4-4-----4-4-4-|-4-4-4-4-4-4-4-4-|-4-4-4-----4-4-4-|-4-4-4-4-4-4-4-4-|
D|-4-4-4-----4-4-4-|-4-4-4-4-4-4-4-4-|-4-4-4-----4-4-4-|-4-4-4-4-4-4-4-4-|
A|-2-2-2-----2-2-2-|-X-X-X-X-X-X-X-X-|-2-2-2-----2-2-2-|-X-X-X-X-X-X-X-X-|
E|-----------------|-4-4-4-4-2-2-2-2-|-----------------|-4-4-4-4-2-2-2-2-|
   1 + 2 + 3 + 4 +   1 + 2 + 3 + 4 +   1 + 2 + 3 + 4 +   1 + 2 + 3 + 4 +


e|-----------------|-----------------|-----------------|-----------------|
B|-----------------|-----------------|-----------------|-----------------|
G|-4-4-4-----4-4-4-|-4-4-4-4-4-4-4-4-|-----------------|-----------------|
D|-4-4-4-----4-4-4-|-4-4-4-4-4-4-4-4-|-2-2-2-2-2-2-2-2-|-4-4-4-4-4-4-4-4-|
A|-2-2-2-----2-2-2-|-X-X-X-X-X-X-X-X-|-2-2-2-2-2-2-2-2-|-4-4-4-4-4-4-4-4-|
E|-----------------|-4-4-4-4-2-2-2-2-|-0-0-0-0-0-0-0-0-|-2-2-2-2-2-2-2-2-|
   1 + 2 + 3 + 4 +   1 + 2 + 3 + 4 +   1 + 2 + 3 + 4 +   1 + 2 + 3 + 4 +


Pre-Chorus - 	You're up there, took the stairs to the stars all alone 
			You left all the lights burning but nobody's home 
			I believe they deceived your tuneful heart too long 		

- Guitar One


e|-----------------|-----------------|-----------------|-----------------|
B|-----------------|---------5555----|-----------------|---------5555----|
G|-----------------|-4444----6666----|-4444----4444----|-4444----6666----|
D|-6666----2222----|-4444----6666----|-6666----2222----|-4444----6666----|
A|-6666----2222----|-2222----4444----|-6666----2222----|-2222----4444----|
E|-4444----0000----|-----------------|-4444----0000----|-----------------|
   1 + 2 + 3 + 4 +   1 + 2 + 3 + 4 +   1 + 2 + 3 + 4 +   1 + 2 + 3 + 4 +


e|-----------------|-----------------|-----------------|-----------------|
B|-----------------|---------5555----|-----------------|-----------------|
G|-----------------|-4444----6666----|-----------------|-----------------|
D|-6666----2222----|-4444----6666----|-2-2-2-2-2-2-2-2-|-4-4-4-4-4-4-4-4-|
A|-6666----2222----|-2222----4444----|-2-2-2-2-2-2-2-2-|-4-4-4-4-4-4-4-4-|
E|-4444----0000----|-----------------|-0-0-0-0-0-0-0-0-|-2-2-2-2-2-2-2-2-|
   1 + 2 + 3 + 4 +   1 + 2 + 3 + 4 +   1 + 2 + 3 + 4 +   1 + 2 + 3 + 4 +



Chorus -  	Now they sing (love) 
		Help me, help me won't you? 
		Sing me, sing me one last song 
		Help me, help me, somebody help me 
		Save me from myself 


Guitar One


e|-----------------|-----------------|-----------------|-----------------|
B|-----------------|-----------------|-----------------|-----------------|
G|-4-4-4-4-4-4-4-4-|-----------------|-----------------|-----------------|
D|-4-4-4-4-4-4-4-4-|-2-2-2-2-2-2-2-2-|-6-6-6-6-6-6-6-6-|-4-4-4-4-4-4-4-4-|
A|-2-2-2-2-2-2-2-2-|-2-2-2-2-2-2-2-2-|-6-6-6-6-6-6-6-6-|-4-4-4-4-4-4-4-4-|
E|-----------------|-0-0-0-0-0-0-0-0-|-4-4-4-4-4-4-4-4-|-2-2-2-2-2-2-2-2-|
 | 1 + 2 + 3 + 4 +   1 + 2 + 3 + 4 +   1 + 2 + 3 + 4 +   1 + 2 + 3 + 4 +
 |
Guitar Two
e|-----------------|-----------------|-----------------|-----------------|
B|-1212121212121211|-1112121212121212|-1212121212121212|-1414141414141414|
G|-X-X-X-X-X-X-X-X-|-X-X-X-X-X-X-X-X-|-X-X-X-X-X-X-X-X-|-X-X-X-X-X-X-X-X-|
D|-9-9-9-9-9-9-9-8-|-8-9-9-9-9-9-9-9-|-9-9-9-9-9-9-9-9-|-1111111111111111|
A|-----------------|-----------------|-----------------|-----------------|
E|-----------------|-----------------|-----------------|-----------------|
   1 + 2 + 3 + 4 +   1 + 2 + 3 + 4 +   1 + 2 + 3 + 4 +   1 + 2 + 3 + 4 +


e|-----------------|-----------------|-----------------|-----------------|
B|-----------------|-----------------|-----------------|-----------------|
G|-----------------|-----------------|-----------------|-----------------|
D|-4-4-4-4-4-4-4-4-|-4-4-4-4-4-4-4-4-|-6-6-6-6-4-4-4-4-|-2-2-2-2-2-2-2-2-|
A|-2-2-2-2-2-2-2-2-|-1-1-1-1-1-1-1-1-|-6-6-6-6-4-4-4-4-|-2-2-2-2-2-2-2-2-|
E|-----------------|-----------------|-4-4-4-4-2-2-2-2-|-0-0-0-0-0-0-0-0-|
 | 1 + 2 + 3 + 4 +   1 + 2 + 3 + 4 +   1 + 2 + 3 + 4 +   1 + 2 + 3 + 4 +
 |
e|-----------------|-----------------|-11--11--11--11--|--------12-------|
B|-12----11--------|-11--------------|-----------------|---12--------12--|
G|-----------------|-------11--------|---13--13--11--11|-9----9--------9-|
D|-----------------|-----------------|-----------------|-----------------|
A|-----------------|-----------------|-----------------|-----------------|
E|-----------------|-----------------|-----------------|-----------------|
   1 + 2 + 3 + 4 +   1 + 2 + 3 + 4 +   1 + 2 + 3 + 4 +   1 + 2 + 3 + 4 +


e|-12--------------|
B|-12--------------|
G|-12--------------|
D|-----------------|
A|-----------------|
E|-----------------|
 | 1 + 2 + 3 + 4 +  
 |
e|-0---------------|
B|-0---------------|
G|-0---------------|
D|-2---------------|
A|-2---------------|
E|-0---------------|
   1 + 2 + 3 + 4 +   


Verse -         	Here I'll find you in between 
			Heaven and hell again where nothings what it seems 
			It's just as well my friend 
			I'm giving me the creeps 
			And a farewell to arms and legs and heads and heart 

- Guitar One


e|-----------------|-----------------|-----------------|-----------------|
B|-----------------|-----------------|-----------------|-----------------|
G|-4-4-4-----4-4-4-|-4-4-4-4-4-4-4-4-|-4-4-4-----4-4-4-|-4-4-4-4-4-4-4-4-|
D|-4-4-4-----4-4-4-|-4-4-4-4-4-4-4-4-|-4-4-4-----4-4-4-|-4-4-4-4-4-4-4-4-|
A|-2-2-2-----2-2-2-|-X-X-X-X-X-X-X-X-|-2-2-2-----2-2-2-|-X-X-X-X-X-X-X-X-|
E|-----------------|-4-4-4-4-2-2-2-2-|-----------------|-4-4-4-4-2-2-2-2-|
   1 + 2 + 3 + 4 +   1 + 2 + 3 + 4 +   1 + 2 + 3 + 4 +   1 + 2 + 3 + 4 +


e|-----------------|-----------------|-----------------|-----------------|
B|-----------------|-----------------|-----------------|-----------------|
G|-4-4-4-----4-4-4-|-4-4-4-4-4-4-4-4-|-----------------|-----------------|
D|-4-4-4-----4-4-4-|-4-4-4-4-4-4-4-4-|-2-2-2-2-2-2-2-2-|-4-4-4-4-4-4-4-4-|
A|-2-2-2-----2-2-2-|-X-X-X-X-X-X-X-X-|-2-2-2-2-2-2-2-2-|-4-4-4-4-4-4-4-4-|
E|-----------------|-4-4-4-4-2-2-2-2-|-0-0-0-0-0-0-0-0-|-2-2-2-2-2-2-2-2-|
   1 + 2 + 3 + 4 +   1 + 2 + 3 + 4 +   1 + 2 + 3 + 4 +   1 + 2 + 3 + 4 +


Pre-Chorus - 	You're up there, took the stairs to the stars all alone 
			You left all the lights burning but nobody's home 
			I believe they deceived your tuneful heart too long 		

- Guitar One


e|-----------------|-----------------|-----------------|-----------------|
B|-----------------|---------5555----|-----------------|---------5555----|
G|-----------------|-4444----6666----|-4444----4444----|-4444----6666----|
D|-6666----2222----|-4444----6666----|-6666----2222----|-4444----6666----|
A|-6666----2222----|-2222----4444----|-6666----2222----|-2222----4444----|
E|-4444----0000----|-----------------|-4444----0000----|-----------------|
   1 + 2 + 3 + 4 +   1 + 2 + 3 + 4 +   1 + 2 + 3 + 4 +   1 + 2 + 3 + 4 +

[ Tab from: http://www.guitaretab.com/a/alkaline-trio/167028.html ]
e|-----------------|-----------------|-----------------|-----------------|
B|-----------------|---------5555----|-----------------|-----------------|
G|-----------------|-4444----6666----|-----------------|-----------------|
D|-6666----2222----|-4444----6666----|-2-2-2-2-2-2-2-2-|-4-4-4-4-4-4-4-4-|
A|-6666----2222----|-2222----4444----|-2-2-2-2-2-2-2-2-|-4-4-4-4-4-4-4-4-|
E|-4444----0000----|-----------------|-0-0-0-0-0-0-0-0-|-2-2-2-2-2-2-2-2-|
   1 + 2 + 3 + 4 +   1 + 2 + 3 + 4 +   1 + 2 + 3 + 4 +   1 + 2 + 3 + 4 +


Chorus -  	Now they sing (love) 
		Help me, help me won't you? 
		Sing me, sing me one last song 
		Help me, help me, somebody help me 
		Save me from myself 
		Take me from this hell 


- Guitar One


e|-----------------|-----------------|-----------------|-----------------|
B|-----------------|-----------------|-----------------|-----------------|
G|-4-4-4-4-4-4-4-4-|-----------------|-----------------|-----------------|
D|-4-4-4-4-4-4-4-4-|-2-2-2-2-2-2-2-2-|-6-6-6-6-6-6-6-6-|-4-4-4-4-4-4-4-4-|
A|-2-2-2-2-2-2-2-2-|-2-2-2-2-2-2-2-2-|-6-6-6-6-6-6-6-6-|-4-4-4-4-4-4-4-4-|
E|-----------------|-0-0-0-0-0-0-0-0-|-4-4-4-4-4-4-4-4-|-2-2-2-2-2-2-2-2-|
 | 1 + 2 + 3 + 4 +   1 + 2 + 3 + 4 +   1 + 2 + 3 + 4 +   1 + 2 + 3 + 4 +
 |
Guitar Two
e|-----------------|-----------------|-----------------|-----------------|
B|-1212121212121211|-1112121212121212|-1212121212121212|-1414141414141414|
G|-X-X-X-X-X-X-X-X-|-X-X-X-X-X-X-X-X-|-X-X-X-X-X-X-X-X-|-X-X-X-X-X-X-X-X-|
D|-9-9-9-9-9-9-9-8-|-8-9-9-9-9-9-9-9-|-9-9-9-9-9-9-9-9-|-1111111111111111|
A|-----------------|-----------------|-----------------|-----------------|
E|-----------------|-----------------|-----------------|-----------------|
   1 + 2 + 3 + 4 +   1 + 2 + 3 + 4 +   1 + 2 + 3 + 4 +   1 + 2 + 3 + 4 +


e|-----------------|-----------------|-----------------|-----------------|
B|-----------------|-----------------|-----------------|-----------------|
G|-----------------|-----------------|-----------------|-----------------|
D|-4-4-4-4-4-4-4-4-|-4-4-4-4-4-4-4-4-|-6-6-6-6-4-4-4-4-|-2-2-2-2-2-2-2-6-|
A|-2-2-2-2-2-2-2-2-|-1-1-1-1-1-1-1-1-|-6-6-6-6-4-4-4-4-|-2-2-2-2-2-2-2-6-|
E|-----------------|-----------------|-4-4-4-4-2-2-2-2-|-0-0-0-0-0-0-0-4-|
 | 1 + 2 + 3 + 4 +   1 + 2 + 3 + 4 +   1 + 2 + 3 + 4 +   1 + 2 + 3 + 4 +
 |
e|-----------------|-----------------|-11--11--11--11--|-1212121212121211|
B|-12----11--------|-11--------------|-----------------|-----------------|
G|-----------------|-------11--------|---13--13--11--11|-----------------|
D|-----------------|-----------------|-----------------|-----------------|
A|-----------------|-----------------|-----------------|-----------------|
E|-----------------|-----------------|-----------------|-----------------|
   1 + 2 + 3 + 4 +   1 + 2 + 3 + 4 +   1 + 2 + 3 + 4 +   1 + 2 + 3 + 4 +


e|-11*---9*------12|-----------------|
B|-----------------|-----------------|
G|-* tremolo pick--|-----------------|
D|-----------------|-----------------|
A|-----------------|-----------------|
E|-----------------|-----------------|
 | 1 + 2 + 3 + 4 +   1 + 2 + 3 + 4 +
 |
e|-----------------|-----------------|
B|-----------------|-----------------|
G|-----------------|-----------------|
D|---6---4---4---2-|-----------------|
A|---6---4---4---2-|-----------------|
E|---4---2---2---0-|-----------------|
   1 + 2 + 3 + 4 +   1 + 2 + 3 + 4 +



Interlude - And they sing
            La la la la la la la la
            La la la la la la la la
            La la la la la la la la
            La la la la la la la la



- Guitar One 


e|-----------------|-----------------|-----------------|-2---------------|
B|-------4-----0---|-------4---0-----|---0-------0-----|-5---------------|
G|---4-------4---4-|---3---------3---|-----4-------3---|-4---------------|
D|-----------------|---------------6-|-6---------------|-2---------------|
A|-2---2-----------|-4---4-----------|-6-------4-------|-----------------|
E|-----------------|-----------------|-----------------|-----------------|
   1 + 2 + 3 + 4 +   1 + 2 + 3 + 4 +   1 + 2 + 3 + 4 +   1 + 2 + 3 + 4 +


e|-----------------|-----------------|-----------------|-----------------|
B|-----------------|-----------------|-----------------|-----------------|
G|-----------------|-----------------|-----------------|-----------------|
D|-4-4-4-4-4-4-4-4-|-4-4-4-4-4-4-4-4-|-----------------|-----2-2-2-2-2-2-|
A|-2-2-2-2-2-2-2-2-|-1-1-1-1-1-1-1-1-|-6-6-6-6-4-4-4-4-|-2-2-2-2-2-2-2-2-|
E|-----------------|-----------------|-4-4-4-4-2-2-2-2-|-0-0-0-0-0-0-0-0-|
   1 + 2 + 3 + 4 +   1 + 2 + 3 + 4 +   1 + 2 + 3 + 4 +   1 + 2 + 3 + 4 +
   PM--------------------------------------------------------------------|
                                                               *Start to relese PM

Pre-Chorus - 	You're up there, took the stairs to the stars all alone 
			You left all the lights burning but nobody's home 
			I believe they deceived your tuneful heart too long 		

- Guitar One


e|-----------------|-----------------|-----------------|-----------------|
B|-----------------|---------55555555|-----------------|---------55555555|
G|-----------------|-4444444466666666|-4444444444444444|-4444444466666666|
D|-6666666622222222|-4444444466666666|-6666666622222222|-4444444466666666|
A|-6666666622222222|-2222222244444444|-6666666622222222|-2222222244444444|
E|-4444444400000000|-----------------|-4444444400000000|-----------------|
   1 + 2 + 3 + 4 +   1 + 2 + 3 + 4 +   1 + 2 + 3 + 4 +   1 + 2 + 3 + 4 +


e|-----------------|-----------------|-----------------|-----------------|
B|-----------------|---------55555555|-----------------|-----------------|
G|-----------------|-4444444466666666|-----------------|-----------------|
D|-6666666622222222|-4444444466666666|-2-2-2-2-2-2-2-2-|-4-4-4-4-4-4-4-4-|
A|-6666666622222222|-2222222244444444|-2-2-2-2-2-2-2-2-|-4-4-4-4-4-4-4-4-|
E|-4444444400000000|-----------------|-0-0-0-0-0-0-0-0-|-2-2-2-2-2-2-2-2-|
   1 + 2 + 3 + 4 +   1 + 2 + 3 + 4 +   1 + 2 + 3 + 4 +   1 + 2 + 3 + 4 +

Chorus - 	And they sing (love) 
		Help me, help me won't you? 
		Sing me, sing me one last song 
		Help me, help me, somebody help me 
		Save me from myself 

		Help me, help me won't you? 
		Sing me, sing me one last song 
		Help me, help me, somebody help me 
		La la la la la la la la 
		Save me from myself 
		Take me from this hell 
Guitar One

e|-----------------|-----------------|-----------------|-----------------|
B|-----------------|-----------------|-----------------|-----------------|
G|-4-4-4-4-4-4-4-4-|-----------------|-----------------|-----------------|
D|-4-4-4-4-4-4-4-4-|-2-2-2-2-2-2-2-2-|-6-6-6-6-6-6-6-6-|-4-4-4-4-4-4-4-4-|
A|-2-2-2-2-2-2-2-2-|-2-2-2-2-2-2-2-2-|-6-6-6-6-6-6-6-6-|-4-4-4-4-4-4-4-4-|
E|-----------------|-0-0-0-0-0-0-0-0-|-4-4-4-4-4-4-4-4-|-2-2-2-2-2-2-2-2-|
 | 1 + 2 + 3 + 4 +   1 + 2 + 3 + 4 +   1 + 2 + 3 + 4 +   1 + 2 + 3 + 4 +
 |
Guitar Two
e|-----------------|-----------------|-----------------|-----------------|
B|-1212121212121211|-1112121212121212|-1212121212121212|-1414141414141414|
G|-X-X-X-X-X-X-X-X-|-X-X-X-X-X-X-X-X-|-X-X-X-X-X-X-X-X-|-X-X-X-X-X-X-X-X-|
D|-9-9-9-9-9-9-9-8-|-8-9-9-9-9-9-9-9-|-9-9-9-9-9-9-9-9-|-1111111111111111|
A|-----------------|-----------------|-----------------|-----------------|
E|-----------------|-----------------|-----------------|-----------------|
   1 + 2 + 3 + 4 +   1 + 2 + 3 + 4 +   1 + 2 + 3 + 4 +   1 + 2 + 3 + 4 +


e|-----------------|-----------------|-----------------|-----------------|
B|-----------------|-----------------|-----------------|-----------------|
G|-----------------|-----------------|-----------------|-----------------|
D|-4-4-4-4-4-4-4-4-|-4-4-4-4-4-4-4-4-|-6-6-6-6-4-4-4-4-|-2-2-2-2-2-2-2-2-|
A|-2-2-2-2-2-2-2-2-|-1-1-1-1-1-1-1-1-|-6-6-6-6-4-4-4-4-|-2-2-2-2-2-2-2-2-|
E|-----------------|-----------------|-4-4-4-4-2-2-2-2-|-0-0-0-0-0-0-0-0-|
 | 1 + 2 + 3 + 4 +   1 + 2 + 3 + 4 +   1 + 2 + 3 + 4 +   1 + 2 + 3 + 4 +
 |
e|-----------------|-----------------|-11--11--11--11--|-1212121212121212|
B|-12----11--------|-11--------------|-----------------|-----------------|
G|-----------------|-------11--------|---13--13--11--11|-----------------|
D|-----------------|-----------------|-----------------|-----------------|
A|-----------------|-----------------|-----------------|-----------------|
E|-----------------|-----------------|-----------------|-----------------|
   1 + 2 + 3 + 4 +   1 + 2 + 3 + 4 +   1 + 2 + 3 + 4 +   1 + 2 + 3 + 4 +


e|-----------------|-----------------|-----------------|-----------------|
B|-----------------|-----------------|-----------------|-----------------|
G|-4-4-4-4-4-4-4-4-|-----------------|-----------------|-----------------|
D|-4-4-4-4-4-4-4-4-|-2-2-2-2-2-2-2-2-|-6-6-6-6-6-6-6-6-|-4-4-4-4-4-4-4-4-|
A|-2-2-2-2-2-2-2-2-|-2-2-2-2-2-2-2-2-|-6-6-6-6-6-6-6-6-|-4-4-4-4-4-4-4-4-|
E|-----------------|-0-0-0-0-0-0-0-0-|-4-4-4-4-4-4-4-4-|-2-2-2-2-2-2-2-2-|
 | 1 + 2 + 3 + 4 +   1 + 2 + 3 + 4 +   1 + 2 + 3 + 4 +   1 + 2 + 3 + 4 +
 |
e|-----------------|-----------------|-----------------|-----------------|
B|-1212121212121211|-1112121212121212|-1212121212121212|-1414141414141414|
G|-X-X-X-X-X-X-X-X-|-X-X-X-X-X-X-X-X-|-X-X-X-X-X-X-X-X-|-X-X-X-X-X-X-X-X-|
D|-9-9-9-9-9-9-9-8-|-8-9-9-9-9-9-9-9-|-9-9-9-9-9-9-9-9-|-1111111111111111|
A|-----------------|-----------------|-----------------|-----------------|
E|-----------------|-----------------|-----------------|-----------------|
   1 + 2 + 3 + 4 +   1 + 2 + 3 + 4 +   1 + 2 + 3 + 4 +   1 + 2 + 3 + 4 +


e|-----------------|-----------------|-----------------|-----------------|
B|-----------------|-----------------|-----------------|-----------------|
G|-----------------|-----------------|-----------------|-----------------|
D|-4-4-4-4-4-4-4-4-|-4-4-4-4-4-4-4-4-|-6-6-6-6-4-4-4-4-|-2-2-2-2-2-2-2-6-|
A|-2-2-2-2-2-2-2-2-|-1-1-1-1-1-1-1-1-|-6-6-6-6-4-4-4-4-|-2-2-2-2-2-2-2-6-|
E|-----------------|-----------------|-4-4-4-4-2-2-2-2-|-0-0-0-0-0-0-0-4-|
 | 1 + 2 + 3 + 4 +   1 + 2 + 3 + 4 +   1 + 2 + 3 + 4 +   1 + 2 + 3 + 4 +
 |
e|-----------------|-----------------|-11--11--11--11--|-1212121212121211|
B|-12----11--------|-11--------------|-----------------|-----------------|
G|-----------------|-------11--------|---13--13--11--11|-----------------|
D|-----------------|-----------------|-----------------|-----------------|
A|-----------------|-----------------|-----------------|-----------------|
E|-----------------|-----------------|-----------------|-----------------|
   1 + 2 + 3 + 4 +   1 + 2 + 3 + 4 +   1 + 2 + 3 + 4 +   1 + 2 + 3 + 4 +


e|-11*---9*------12|-1212121212121211|-11*---9*------12|-----------------|
B|-----------------|-----------------|-----------------|-----------------|
G|-* tremolo pick--|-----------------|-----------------|-----------------|
D|-----------------|-----------------|-----------------|-----------------|
A|-----------------|-----------------|-----------------|-----------------|
E|-----------------|-----------------|-----------------|-----------------|
 | 1 + 2 + 3 + 4 +   1 + 2 + 3 + 4 +   1 + 2 + 3 + 4 +   1 + 2 + 3 + 4 +
 |
e|-----------------|-----------------|-----------------|-----------------|
B|-----------------|-----------------|-----------------|-----------------|
G|-----------------|-----------------|-----------------|-----------------|
D|---6---4---4---2-|---------------6-|---6---4---4---2-|-----------------|
A|---6---4---4---2-|---------------6-|---6---4---4---2-|-----------------|
E|---4---2---2---0-|---------------4-|---4---2---2---0-|-----------------|
   1 + 2 + 3 + 4 +   1 + 2 + 3 + 4 +   1 + 2 + 3 + 4 +   1 + 2 + 3 + 4 +
Related for Help Me tab