Song name
# A B C D E F G H I J K L M N O P Q R S T U V W X Y Z

Alkaline Trio - Maybe Ill Catch Fire Acoustic tab

Help us improve GuitareTab! Take a short survey!
Right this is an acoustic version of Alkaline Trio's "Maybe I'll Catch Fire" found on 
agony agony and irony album, a bonus track.
play these chords as many times as you feel is right

Intro

e|---------------|
B|---------------|
G|-5-------------|
D|-5--5--7--5--3-|
A|-3--5--7--5--3-|
E|----3--5--3--1-|

Verse

e|------------------------|
B|------------------------|
G|------------------------|
D|-3--2--3--2--3--2--3--2-|
A|-3--2--3--2--3--2--3--2-|
E|-1--0--1--0--1--0--1--0-|

Chorus

e|---------------------------|
B|---------------------------|
G|-5--------------5----------|
D|-5--5--7--5--3--5--5--7--5-|
A|-3--5--7--5--3--3--5--7--5-|
E|----3--5--3--1-----3--5--3-|

Verse

e|------------------------|
B|------------------------|
G|------------------------|
D|-3--2--3--2--3--2--3--2-|
A|-3--2--3--2--3--2--3--2-|
E|-1--0--1--0--1--0--1--0-|

Chorus

e|---------------------------|
B|---------------------------|
G|-5--------------5----------|
D|-5--5--7--5--3--5--5--7--5-|
A|-3--5--7--5--3--3--5--7--5-|
E|----3--5--3--1-----3--5--3-|

Bridge

e|-------------------------|
B|-------------------------|
G|-------------------------|
D|-10--9--7--5--7--5--3--5-|
A|-10--9--7--5--7--5--3--5-|
E|--8--7--5--3--5--3--1--3-|

Chorus

e|------------------------------|
B|------------------------------|
G|-5--------------5-----------5-|
D|-5--5--7--5--3--5--5--7--5--3-|
A|-3--5--7--5--3--3--5--7--5--3-|
E|----3--5--3--1-----3--5--3----|
Related for Maybe Ill Catch Fire Acoustic tab