Song name
# A B C D E F G H I J K L M N O P Q R S T U V W X Y Z

Alkaline Trio - Wake Up Exhausted tab

-----------------------------------------------------------------
Wake Up Exhausted - Alkaline Trio With Tegan Quin
-----------------------------------------------------------------
Tabbed by: Bair
Email: bair_morritt@hotmail.com

Tuning: Standard

**A cover song off their Agony and Irony (2008) album but played in a different key on 
shes there**

http://www.youtube.com/watch?v=bqcJLACfkXU

Intro/Verse:
e|--------|----------------------------------------------|
B|--------|----------------------------------------------|
G|--------|----------------------77777777-99999999-------|
D|--x-x-x-|--77777777--77777777--77777777-99999999-(X2)--|
A|--x-x-x-|--77777777--77777777--55555555-77777777-------|
E|--x-x-x-|--55555555--44444444--------------------------|
          "I wake up exhausted, it's not morning, it's back...."
Chorus:
e|-------------------------------------------|
B|-------------------------------------------|
G|--7777777777777777--7777777777777777-------|
D|--7777777777777777--7777777777777777-(X2)--|
A|--5555555555555555--4444444444444444-------|
E|-------------------------------------------|
"Are you alright? I can stand up staight...."

Main Riff:
e|-------------------------------------------|
B|-------------------------------------------|
G|-----2----2----2----2----2----2----2----2--|
D|---2----2----2----2----2----2----2----2----|
A|-0----0----0----0----0----0----0----0------|
E|-------------------------------------------|


Verse 2:
e|----------------------------------------------|
B|----------------------------------------------|
G|----------------------77777777-99999999-------|
D|--77777777--77777777--77777777-99999999-(X4)--|
A|--77777777--77777777--55555555-77777777-------|
E|--55555555--44444444--------------------------|
"I hated this city before you came here...."

Chorus:
e|-------------------------------------------|
B|-------------------------------------------|
G|--7777777777777777--7777777777777777-------|
D|--7777777777777777--7777777777777777-(X4)--|
A|--5555555555555555--4444444444444444-------|
E|-------------------------------------------|
"Are you alright? I can stand up straight...."

Main Riff:
e|-------------------------------------------|
B|-------------------------------------------|
G|-----2----2----2----2----2----2----2----2--|
D|---2----2----2----2----2----2----2----2----|
A|-0----0----0----0----0----0----0----0------|
E|-------------------------------------------|

Verse 3:
e|----------------------------------------------|
B|----------------------------------------------|
G|----------------------77777777-99999999-------|
D|--77777777--77777777--77777777-99999999-(X2)--|
A|--77777777--77777777--55555555-77777777-------|
E|--55555555--44444444--------------------------|
"I wake up exhausted, It's not morning...."

Chorus:
e|-------------------------------------------|
B|-------------------------------------------|
G|--7777777777777777--7777777777777777-------|
D|--7777777777777777--7777777777777777-(X4)--|
A|--5555555555555555--4444444444444444-------|
E|-------------------------------------------|
"Are you alright? I can stand up straight...."

Main Riff:
e|-------------------------------------------|
B|-------------------------------------------|
G|-----2----2----2----2----2----2----2----2--|
D|---2----2----2----2----2----2----2----2----|
A|-0----0----0----0----0----0----0----0------|
E|-------------------------------------------|
"Can you get me off your mind?...."

Outro:
e|------------------------------------------|
B|------------------------------------------|
G|--9999999999999999----2-------------------|
D|--9999999999999999----2-(Hold)------------|
A|--7777777777777777----0-------------------|
E|------------------------------------------|
Tap to rate this tab
# A B C D E F G H I J K L M N O P Q R S T U V W X Y Z