Song name
# A B C D E F G H I J K L M N O P Q R S T U V W X Y Z

Alkaline Trio - Fire Down Below tab

FIRE DOWN BELOW
ALKALINE TRIO
WARPED TOUR COMPILATION 2007

the last chorus/outro isnt 100% but the rest seems okay by ear

work out strumming pattern etc

tabbed by e_mericana@hotmail.com

INTRO
e----------------------------------------------|
B----------------------------------------------|
G--11-----9----7-------------------------------|
D---x-----x----x-------------------------------|
A---9-----7----5-------------------------------|X 2 let ring
E----------------------------------------------|

INTRO PART 2
e----------------------------------------------|
B--10--9--7------------------------------------|
G--11--9--7--6--9------------------------------|
D---x--x--x--x--x------------------------------|
A---9--7--5--4--7------------------------------|
E----------------------------------------------|

VERSE (i)      VERSE (ii)
e-----------|-----------------------------------|
B-----------|-----------------------------------|
G--11--9--7-|----9------------------------------|
D--11--9--7-|-7--9------------------------------|
A---9--7--5-|-7--7------------------------------|
E-----------|-5---------------------------------|

VERSE (i) x 3 THEN VERSE (ii) x 1

VERSE (i) x 1 THEN VERSE (ii) x 1

CHORUS

e----------------------------------------------|
B----------------------------------------------|
G--------------------7--9----------------------|
D--7--2--4--2--7--2--7--9----------------------|
A--7--2--4--2--7--2--5--7----------------------|
E--5--0--2--0--5--0----------------------------|

INTRO PART 2 

VERSE

CHORUS

BRIDGE
e----------------------------------------------|
B----------------------------------------------|
G--11--7-----9---------------------------------|
D--11--7--7--9---------------------------------|
A---9--5--7--7---------------------------------|
E---------5------------------------------------|

LAST CHORUS
e----------------------------------------------|
B----------------------------------------------|
G--9--9-11--9--9--9--7--9----------------------|
D--7--9-11--9--7--9--7--9----------------------|
A--0--7--9--7--0--7--5--7----------------------|
E----------------------------------------------|

END ON
e----|
B----|
G-11-|
D-11-|
A--9-|
E----|
Tap to rate this tab
 
# A B C D E F G H I J K L M N O P Q R S T U V W X Y Z