Song name
# A B C D E F G H I J K L M N O P Q R S T U V W X Y Z

All-american Rejects - Time Stands Still tab

Song: Time Stands Still
Artist: The All-American Rejects
Album: The All-American Rejects
Release Date: Feb 04, 2003
Label: Dreamworks SKG
	The All-American Rejects Are:
Vaocals: Tyson Ritter
Guitars: Nick Wheeler
Guitars: Mike Kennerty
Bass Guitars: Tyson Ritter
Drums: Chris Gaylor
	The All-American Rejects Use:
Sennheiser Microphones, Gibson, Fender, and Epiphone
guitars, Line 6 Pedals, Ernie Ball Strings, Dunlop picks,
Tama Drums, Sabian Symbols and Vater Drum Sticks.

Standard Tunung
e|--
b|--
g|--
d|--
a|--
e|--

Symols Used In This Song:
~ Hold Note Out

Tabbed By: Rhy Chermside
I\'m constantly improving and correcting my tabs, so if you have any suggestions email me.
	BeatOnTheBrat91@hotmail.com


Guitar 1 (Lead) Intro: (Clean)
e|------3-3---------3-3-----1-1-x-x-x-x-1-1-|
b|--x-x-3-3-x-x-x-x-3-3-----1-1-x-x-x-x-1-1-|
g|--x-x-0-0-x-x-x-x-0-0-x-x-2-2-x-x-x-x-2-2-|
d|--x-x-2-2-x-x-x-x-0-0-x-x-3-3-x-x-x-x-3-3-|
a|--x-x-3-3-x-x-x-x-2-2-x-x-----------------|
e|------------------3-3-x-x-----------------|

Guitar 1 Intro: (Clean)
e|------3-3---------3-3-----1-1-x-x-x-x-x-x-x-x-|
b|--x-x-3-3-x-x-x-x-3-3-----1-1-x-x-x-x-x-x-x-x-|
g|--x-x-0-0-x-x-x-x-0-0-x-x-2-2-x-x-x-x-x-x-x-x-|
d|--x-x-2-2-x-x-x-x-0-0-x-x-3-3-x-x-x-x-x-x-x-x-|
a|--x-x-3-3-x-x-x-x-2-2-x-x---------------------|
e|------------------3-3-x-x---------------------|

Guitar 2 (Rythm) Intro:
e|----------------------------------------------|
b|----------------------------------------------|
g|------------------------------x-x-x-x-x-x-x-x-|
d|------------------------------x-x-x-x-x-x-x-x-|
a|------------------------------x-x-x-x-x-x-x-x-|
e|------------------------------x-x-x-x-x-x-x-x-|


Guitars 1 & 2 Intro Part II:
e|------------------------------------------|
b|------------------------------------------|
g|--5-5-x-x-x-x-----------------------------|
d|--5-5-x-x-x-x-5-5-x-x-3-3-x-x-x-x-3-3-x-x-|
a|--3-3-x-x-x-x-5-5-x-x-3-3-x-x-x-x-3-3-x-x-|
e|--------------3-3-x-x-1-1-x-x-x-x-1-1-x-x-|
        You_________________________  

Guitars 1 & 2 Intro Part II:
e|--------------------------------------|
b|--------------------------------------|
g|--5-5-x-x-x-x-------------------------|
d|--5-5-x-x-x-x-5-5-x-x-3-3-x-x-x-x-3-3-|
a|--3-3-x-x-x-x-5-5-x-x-3-3-x-x-x-x-3-3-|
e|--------------3-3-x-x-1-1-x-x-x-x-1-1-|
        You_________________________  



Guitar 1 Verse: (Clean)
e|------3-3---------3-3-----1-1-x-x-x-x-1-1-|
b|--x-x-3-3-x-x-x-x-3-3-----1-1-x-x-x-x-1-1-|
g|--x-x-0-0-x-x-x-x-0-0-x-x-2-2-x-x-x-x-2-2-|
d|--x-x-2-2-x-x-x-x-0-0-x-x-3-3-x-x-x-x-3-3-|
a|--x-x-3-3-x-x-x-x-2-2-x-x-----------------|
e|------------------3-3-x-x-----------------|
        Him         and     her

Guitar 1 Verse: (Clean)
e|------3-3---------3-3-----1-1-x-x-x-x-1-1-|
b|--x-x-3-3-x-x-x-x-3-3-----1-1-x-x-x-x-1-1-|
g|--x-x-0-0-x-x-x-x-0-0-x-x-2-2-x-x-x-x-2-2-|
d|--x-x-2-2-x-x-x-x-0-0-x-x-3-3-x-x-x-x-3-3-|
a|--x-x-3-3-x-x-x-x-2-2-x-x-----------------|
e|------------------3-3-x-x-----------------|
        Life        is      Turned

Guitar 1 Verse: (Clean
e|------3-3---------3-3-----1-1-x-x-x-x-1-1-|
b|--x-x-3-3-x-x-x-x-3-3-----1-1-x-x-x-x-1-1-|
g|--x-x-0-0-x-x-x-x-0-0-x-x-2-2-x-x-x-x-2-2-|
d|--x-x-2-2-x-x-x-x-0-0-x-x-3-3-x-x-x-x-3-3-|
a|--x-x-3-3-x-x-x-x-2-2-x-x-----------------|
e|------------------3-3-x-x-----------------|

Guitar 2 Verse: (Clean)
e|-------------------------------------------------|
b|--------3-----------3-----------1-----------1----|
g|-----------0-----------0-----------2-----------2-|
d|-----2-----------0-----------3-----------3-------|
a|--3-----------------------0-----------0----------|
e|--------------3----------------------------------|
   The  day     I knew you would leave      


Guitar 1 Verse: (Clean
e|------3-3---------3-3-----1-1-x-x-x-x-1-1-|
b|--x-x-3-3-x-x-x-x-3-3-----1-1-x-x-x-x-1-1-|
g|--x-x-0-0-x-x-x-x-0-0-x-x-2-2-x-x-x-x-2-2-|
d|--x-x-2-2-x-x-x-x-0-0-x-x-3-3-x-x-x-x-3-3-|
a|--x-x-3-3-x-x-x-x-2-2-x-x-----------------|
e|------------------3-3-x-x-----------------|

Guitar 2 Verse: (Clean)
e|------------------------------------------|
b|--------3-----------3-----------1-----1~~-|
g|-----------0-----------0-----------2--2~~-|
d|-----2-----------0-----------3--------3~~-|
a|--3-----------------------0-----------0~~-|
e|--------------3---------------------------|
    I       could       hardly     breath



Chorus:
Can you hear me

Guitars 1 & 2 Chorus:
e|------------------------------------------|
b|------------------------------------------|
g|--5-5-x-x-x-x-----------------------------|
d|--5-5-x-x-x-x-5-5-x-x-3-3-x-x-x-x-3-3-x-x-|
a|--3-3-x-x-x-x-5-5-x-x-3-3-x-x-x-x-3-3-x-x-|
e|--------------3-3-x-x-1-1-x-x-x-x-1-1-x-x-|
    Scream             Thrown in all directions
        You_________

Guitars 1 & 2 Chorus:
e|------------------------------------------|
b|------------------------------------------|
g|--5-5-x-x-x-x-----------------------------|
d|--5-5-x-x-x-x-5-5-x-x-3-3-x-x-x-x-3-3-x-x-|
a|--3-3-x-x-x-x-5-5-x-x-3-3-x-x-x-x-3-3-x-x-|
e|--------------3-3-x-x-1-1-x-x-x-x-1-1-x-x-|
                   Your epidimy of perfection
        You_________ 

Guitars 1 & 2 Chorus:
e|------------------------------------------|
b|------------------------------------------|
g|--5-5-x-x-x-x-----------------------------|
d|--5-5-x-x-x-x-5-5-x-x-3-3-x-x-x-x-3-3-x-x-|
a|--3-3-x-x-x-x-5-5-x-x-3-3-x-x-x-x-3-3-x-x-|
e|--------------3-3-x-x-1-1-x-x-x-x-1-1-x-x-|
    She\'s lost her will
                       (She\'s lost her will)

Guitars 1 & 2 Chorus:
e|--------------------------------------|
b|--------------------------------------|
g|--5-5-x-x-x-x-------------------------|
d|--5-5-x-x-x-x-5-5-x-x-3-3-x-x-x-x-3-3-|
a|--3-3-x-x-x-x-5-5-x-x-3-3-x-x-x-x-3-3-|
e|--------------3-3-x-x-1-1-x-x-x-x-1-1-|
    Time  is  standing still
 




Guitar 1 Verse: (Clean)
e|------3-3---------3-3-----1-1-x-x-x-x-1-1-|
b|--x-x-3-3-x-x-x-x-3-3-----1-1-x-x-x-x-1-1-|
g|--x-x-0-0-x-x-x-x-0-0-x-x-2-2-x-x-x-x-2-2-|
d|--x-x-2-2-x-x-x-x-0-0-x-x-3-3-x-x-x-x-3-3-|
a|--x-x-3-3-x-x-x-x-2-2-x-x-----------------|
e|------------------3-3-x-x-----------------|
        He          walks   her home

Guitar 1 Verse: (Clean)
e|------3-3---------3-3-----1-1-x-x-x-x-1-1-|
b|--x-x-3-3-x-x-x-x-3-3-----1-1-x-x-x-x-1-1-|
g|--x-x-0-0-x-x-x-x-0-0-x-x-2-2-x-x-x-x-2-2-|
d|--x-x-2-2-x-x-x-x-0-0-x-x-3-3-x-x-x-x-3-3-|
a|--x-x-3-3-x-x-x-x-2-2-x-x-----------------|
e|------------------3-3-x-x-----------------|
        Now he      walks   alone

Guitar 1 Verse: (Clean
e|------3-3---------3-3-----1-1-x-x-x-x-1-1-|
b|--x-x-3-3-x-x-x-x-3-3-----1-1-x-x-x-x-1-1-|
g|--x-x-0-0-x-x-x-x-0-0-x-x-2-2-x-x-x-x-2-2-|
d|--x-x-2-2-x-x-x-x-0-0-x-x-3-3-x-x-x-x-3-3-|
a|--x-x-3-3-x-x-x-x-2-2-x-x-----------------|
e|------------------3-3-x-x-----------------|

Guitar 1 Verse: (Clean)
e|-------------------------------------------------|
b|--------3-----------3-----------1-----------1----|
g|-----------0-----------0-----------2-----------2-|
d|-----2-----------0-----------3-----------3-------|
a|--3-----------------------0-----------0----------|
e|--------------3----------------------------------|
    The    days    they into  years

Guitar 1 Verse: (Clean
e|------3-3---------3-3-----1-1-x-x-x-x-1-1-|
b|--x-x-3-3-x-x-x-x-3-3-----1-1-x-x-x-x-1-1-|
g|--x-x-0-0-x-x-x-x-0-0-x-x-2-2-x-x-x-x-2-2-|
d|--x-x-2-2-x-x-x-x-0-0-x-x-3-3-x-x-x-x-3-3-|
a|--x-x-3-3-x-x-x-x-2-2-x-x-----------------|
e|------------------3-3-x-x-----------------|
Guitar 1 Verse: (Clean)
e|------------------------------------------|
b|--------3-----------3-----------1-----1~~-|
g|-----------0-----------0-----------2--2~~-|
d|-----2-----------0-----------3--------3~~-|
a|--3-----------------------0-----------0~~-|
e|--------------3---------------------------|
   The    eyes    they   drown   tears
 



Chorus:
Can you hear me

Guitars 1 & 2 Chorus:
e|------------------------------------------|
b|------------------------------------------|
g|--5-5-x-x-x-x-----------------------------|
d|--5-5-x-x-x-x-5-5-x-x-3-3-x-x-x-x-3-3-x-x-|
a|--3-3-x-x-x-x-5-5-x-x-3-3-x-x-x-x-3-3-x-x-|
e|--------------3-3-x-x-1-1-x-x-x-x-1-1-x-x-|
    Scream             Thrown in all directions
        You_________

Guitars 1 & 2 Chorus:
e|------------------------------------------|
b|------------------------------------------|
g|--5-5-x-x-x-x-----------------------------|
d|--5-5-x-x-x-x-5-5-x-x-3-3-x-x-x-x-3-3-x-x-|
a|--3-3-x-x-x-x-5-5-x-x-3-3-x-x-x-x-3-3-x-x-|
e|--------------3-3-x-x-1-1-x-x-x-x-1-1-x-x-|
                   Your epidimy of perfection
        You_________ 

Guitars 1 & 2 Chorus:
e|------------------------------------------|
b|------------------------------------------|
g|--5-5-x-x-x-x-----------------------------|
d|--5-5-x-x-x-x-5-5-x-x-3-3-x-x-x-x-3-3-x-x-|
a|--3-3-x-x-x-x-5-5-x-x-3-3-x-x-x-x-3-3-x-x-|
e|--------------3-3-x-x-1-1-x-x-x-x-1-1-x-x-|
    She\'s lost her will
                       (She\'s lost her will)

Guitars 1 & 2 Chorus:
e|--------------------------------------|
b|--------------------------------------|
g|--5-5-x-x-x-x-------------------------|
d|--5-5-x-x-x-x-5-5-x-x-3-3-x-x-x-x-3-3-|
a|--3-3-x-x-x-x-5-5-x-x-3-3-x-x-x-x-3-3-|
e|--------------3-3-x-x-1-1-x-x-x-x-1-1-|
    Time  is  standing still
 


Guitars 1 & 2 Bridge:
e|-------------------------------------------------------------------|
b|-------------------------------------------------------------------|
g|------------------------------------5---5---5---5------------------|
d|--3---3---3---3----5---5---5---5----5---5---5---5----5---5---5---5-|
a|--3---3---3---3----5---5---5---5----3---3---3---3----5---5---5---5-|
e|--1---1---1---1----3---3---3---3---------------------3---3---3---3-|
    The way we are   The way we were
                                   (It\'s just a shadow of what\'s wrong)

Guitars 1 & 2 Bridge:
e|-------------------------------------------------------------------|
b|-------------------------------------------------------------------|
g|------------------------------------5---5---5---5------------------|
d|--3---3---3---3----5---5---5---5----5---5---5---5----5---5---5---5-|
a|--3---3---3---3----5---5---5---5----3---3---3---3----5---5---5---5-|
e|--1---1---1---1----3---3---3---3---------------------3---3---3---3-|
   The time with you The time is stirred 
                                         (I love you for so long)

Guitars 1 & 2 Bridge:
e|-------------------------------------------------------------------|
b|-------------------------------------------------------------------|
g|------------------------------------5---5---5---5------------------|
d|--3---3---3---3----5---5---5---5----5---5---5---5----5---5---5---5-|
a|--3---3---3---3----5---5---5---5----3---3---3---3----5---5---5---5-|
e|--1---1---1---1----3---3---3---3---------------------3---3---3---3-|
  The hearts they turn They turn away
                                     (She says to go, please don\'t cry)

Guitars 1 & 2 Bridge:
e|----------------------------------------------|
b|----------------------------------------------|
g|--5---5---5---5-------------------------------|
d|--5---5---5---5----5---5---5---5---3--3--3~~~-|
a|--3---3---3---3----5---5---5---5---3--3--3~~~-|
e|-------------------3---3---3---3---1--1--1~~~-|
   Love lost was found  Nights turn    to   day



Guitar 1 Bridge Part II: (Clean)
e|------3-3---------3-3-----1-1-x-x-x-x-1-1-|
b|--x-x-3-3-x-x-x-x-3-3-----1-1-x-x-x-x-1-1-|
g|--x-x-0-0-x-x-x-x-0-0-x-x-2-2-x-x-x-x-2-2-|
d|--x-x-2-2-x-x-x-x-0-0-x-x-3-3-x-x-x-x-3-3-|
a|--x-x-3-3-x-x-x-x-2-2-x-x-----------------|
e|------------------3-3-x-x-----------------|
    You____________ Thrown in all directions

Guitar 1 Bridge Part II: (Clean)
e|------3-3---------3-3-----1-1-x-x-x-x-1-1-|
b|--x-x-3-3-x-x-x-x-3-3-----1-1-x-x-x-x-1-1-|
g|--x-x-0-0-x-x-x-x-0-0-x-x-2-2-x-x-x-x-2-2-|
d|--x-x-2-2-x-x-x-x-0-0-x-x-3-3-x-x-x-x-3-3-|
a|--x-x-3-3-x-x-x-x-2-2-x-x-----------------|
e|------------------3-3-x-x-----------------|
    You____________ Epidimy of perfection

Guitar 1 Bridge Part II: (Clean)
e|------3-3---------3-3-----1-1-x-x-x-x-1-1-|
b|--x-x-3-3-x-x-x-x-3-3-----1-1-x-x-x-x-1-1-|
g|--x-x-0-0-x-x-x-x-0-0-x-x-2-2-x-x-x-x-2-2-|
d|--x-x-2-2-x-x-x-x-0-0-x-x-3-3-x-x-x-x-3-3-|
a|--x-x-3-3-x-x-x-x-2-2-x-x-----------------|
e|------------------3-3-x-x-----------------|

Guitar 2 Bridge Part II: (Clean)
e|-------------------------------------------------|
b|--------3-----------3-----------1-----------1----|
g|-----------0-----------0-----------2-----------2-|
d|-----2-----------0-----------3-----------3-------|
a|--3-----------------------0-----------0----------|
e|--------------3----------------------------------|
    She\'s lost her will
                           (She\'s lost her will)

Guitar 1 Bridge Part II: (Clean)
e|------3-3---------3-3-----1-1-x-x-x-x-1-1-|
b|--x-x-3-3-x-x-x-x-3-3-----1-1-x-x-x-x-1-1-|
g|--x-x-0-0-x-x-x-x-0-0-x-x-2-2-x-x-x-x-2-2-|
d|--x-x-2-2-x-x-x-x-0-0-x-x-3-3-x-x-x-x-3-3-|
a|--x-x-3-3-x-x-x-x-2-2-x-x-----------------|
e|------------------3-3-x-x-----------------|

Guitar 2 Bridge Part II: (Clean)
e|----------------------------------------------------------|
b|--------3-----------3-----------1-----1~~-----------------|
g|-----------0-----------0-----------2--2~~-x-x-x-x-x-x-x-x-|
d|-----2-----------0-----------3--------3~~-x-x-x-x-x-x-x-x-|
a|--3-----------------------0-----------0~~-x-x-x-x-x-x-x-x-|
e|--------------3---------------------------x-x-x-x-x-x-x-x-|
    Time   is   standing   still____________





Guitars 1 & 2 Chorus:
e|------------------------------------------|
b|------------------------------------------|
g|--5-5-x-x-x-x-----------------------------|
d|--5-5-x-x-x-x-5-5-x-x-3-3-x-x-x-x-3-3-x-x-|
a|--3-3-x-x-x-x-5-5-x-x-3-3-x-x-x-x-3-3-x-x-|
e|--------------3-3-x-x-1-1-x-x-x-x-1-1-x-x-|
                       Thrown in all directions
        You_________

Guitars 1 & 2 Chorus:
e|------------------------------------------|
b|------------------------------------------|
g|--5-5-x-x-x-x-----------------------------|
d|--5-5-x-x-x-x-5-5-x-x-3-3-x-x-x-x-3-3-x-x-|
a|--3-3-x-x-x-x-5-5-x-x-3-3-x-x-x-x-3-3-x-x-|
e|--------------3-3-x-x-1-1-x-x-x-x-1-1-x-x-|
                   Your epidimy of perfection
        You_________ 

Guitars 1 & 2 Chorus:
e|------------------------------------------|
b|------------------------------------------|
g|--5-5-x-x-x-x-----------------------------|
d|--5-5-x-x-x-x-5-5-x-x-3-3-x-x-x-x-3-3-x-x-|
a|--3-3-x-x-x-x-5-5-x-x-3-3-x-x-x-x-3-3-x-x-|
e|--------------3-3-x-x-1-1-x-x-x-x-1-1-x-x-|
    She\'s lost her will
                       (She\'s lost her will)

Guitars 1 & 2 Chorus:
e|------------------------------------------------------|
b|------------------------------------------------------|
g|--5-5-x-x-x-x-------------------------x-x-x-x-x-x-x-x-|
d|--5-5-x-x-x-x-5-5-x-x-3-3-x-x-x-x-3-3-x-x-x-x-x-x-x-x-|
a|--3-3-x-x-x-x-5-5-x-x-3-3-x-x-x-x-3-3-x-x-x-x-x-x-x-x-|
e|--------------3-3-x-x-1-1-x-x-x-x-1-1-x-x-x-x-x-x-x-x-|
    Time  is  standing still



Guitars 1 & 2 Chorus/Outro:
e|------------------------------------------|
b|------------------------------------------|
g|--5-5-x-x-x-x-----------------------------|
d|--5-5-x-x-x-x-5-5-x-x-3-3-x-x-x-x-3-3-x-x-|
a|--3-3-x-x-x-x-5-5-x-x-3-3-x-x-x-x-3-3-x-x-|
e|--------------3-3-x-x-1-1-x-x-x-x-1-1-x-x-|
    You______________________

Guitars 1 & 2 Chorus/Outro:
e|------------------------------------------|
b|------------------------------------------|
g|--5-5-x-x-x-x-----------------------------|
d|--5-5-x-x-x-x-5-5-x-x-3-3-x-x-x-x-3-3-x-x-|
a|--3-3-x-x-x-x-5-5-x-x-3-3-x-x-x-x-3-3-x-x-|
e|--------------3-3-x-x-1-1-x-x-x-x-1-1-x-x-|
    You______________________

Guitars 1 & 2 Chorus/Outro:
e|------------------------------------------|
b|------------------------------------------|
g|--5-5-x-x-x-x-----------------------------|
d|--5-5-x-x-x-x-5-5-x-x-3-3-x-x-x-x-3-3-x-x-|
a|--3-3-x-x-x-x-5-5-x-x-3-3-x-x-x-x-3-3-x-x-|
e|--------------3-3-x-x-1-1-x-x-x-x-1-1-x-x-|
    You______________________

Guitars 1 & 2 Chorus/Outro:
e|----------------------------------------|
b|----------------------------------------|
g|--5-5-x-x-x-x---------------------------|
d|--5-5-x-x-x-x-5-5-x-x-3-3-x-x-x-x-3-3~~-|
a|--3-3-x-x-x-x-5-5-x-x-3-3-x-x-x-x-3-3~~-|
e|--------------3-3-x-x-1-1-x-x-x-x-1-3~~-|
    Time  is  standing still
Tap to rate this tab
# A B C D E F G H I J K L M N O P Q R S T U V W X Y Z