Song name
# A B C D E F G H I J K L M N O P Q R S T U V W X Y Z

All-american Rejects - Night Drive tab

--------------------------------------------------------------------------
	             NIGHT DRIVE - All-American Rejects
--------------------------------------------------------------------------
Tabbed by:chris a, weeeeeeeeeeeeeeeeeeeeee
Email:hilo48@hotmail.com

Tuning:standard

e|----------------------------------------0--|0:06 
B|----------------------------------------0--| 
G|-----------------------5-5--xxx---------0--|  
D|---7-7--xxx--2-2--xxx--5-5--xxx--5-5--xx0--|  
A|---7-7--xxx--2-2--xxx--3-3--xxx--5-5--xx---|  
E|---5-5--xxx--0-0--xxx------------3-3--xx---|  

e|-------------------------------------------|0:13 
B|-------------------------------------------|  
G|-----------------------5-5--555------------|     
D|---7-7--777--2-2--222--5-5--555--5-5--555--|x2  
A|---7-7--777--2-2--222--3-3--333--5-5--555--|  
E|---5-5--555--0-0--000------------3-3--333--|  

e|-------|0:26
B|---9/--|
G|---8/--|
D|---9/--|
A|-------|
E|-------|

e|-------------------------------|0:27
B|-------10------8-----8--10--5--|
G|----9-------9------9-----------|     
D|--10-10----9-10---9-9----------|x2
A|-------------------------------|
E|-------------------------------|

e|--------|0:40
B|--------|
G|--------|
D|---5\7--|
A|---5\7--|
E|---3\5--|
           
e|---------------------------------------|0:40             
B|---------------------------------------|             
G|-------------------5555555\7-----------|             
D|---77777777777777775555555\75555555\6--|    
A|---77777777777777773333333\45555555\6--|
E|---5555555555555555---------3333333\4--|
PM   ........................ ........
e|-------------------------------------|0:47             
B|-------------------------------------|             
G|-------------------5555555577777777--|             
D|---77777777777777775555555577777777--|    
A|---77777777777777773333333355555555--|
E|---5555555555555555------------------|
PM   ................................
e|---------0--|0:53
B|---------0--|
G|---------0--|
D|---x-x-xx0--|
A|---x-x-xx---|
E|---x-x-xx---|

e|-------------------------------------------|0:55  
B|-------------------------------------------|  
G|-----------------------5-5--555------------|     
D|---7-7--777--2-2--222--5-5--555--5-5--555--|x2  
A|---7-7--777--2-2--222--3-3--333--5-5--555--|  
E|---5-5--555--0-0--000------------3-3--333--|  

e|--------------------------------------------------------|1:08 
B|--10-10--10-10--10-8-8--8-8--8-8-8--8-8--8-9-9--9-9--9--|
G|---9--9---9--9---9-9-9--9-9--9-7-7--7-7--7-9-9--9-9--9--|
D|--10-10--10-10--10-9-9--9-9--9-9-9--9-9--9-9-9--9-9--9--|
A|--------------------------------------------------------|
E|--------------------------------------------------------|
(those are tens^^^)
e|---------------------------------------------|1:14
B|---------------------------------------------|
G|---------------------------------------------|
D|---7777777777722222222225555555555522222222--|x2    
A|---7777777777722222222223355555555522222222--|
E|---5555555555500000000003333333333300000000--|
PM   ........................................
e|--------|1:27
B|--------|
G|--------|
D|---5\7--|
A|---5\7--|
E|---3\5--|

e|-------------------------------------|1:28             
B|-------------------------------------|             
G|-------------------55555555----------|             
D|---77777777777777775555555555555555--|    
A|---77777777777777773333333355555555--|
E|---5555555555555555--------33333333--|
PM   ................................
e|-------------------------------------|1:34             
B|-------------------------------------|             
G|-------------------5555555577777777--|             
D|---77777777777777775555555577777777--|    
A|---77777777777777773333333355555555--|
E|---5555555555555555------------------|
PM   ................................
e|-------------------------------------------|1:42  
B|-------------------------------------------|  
G|-----------------------5-5--555------------|     
D|---7-7--777--2-2--222--5-5--555--5-5--555--|x2  
A|---7-7--777--2-2--222--3-3--333--5-5--555--|  
E|---5-5--555--0-0--000------------3-3--333--|

e|-------------------------------------------|1:55
B|-------------------------------------------|
G|-----------------------5-5--555--7-7--777--|     
D|---7-7--777--2-2--222--5-5--555--7-7--777--|x2
A|---7-7--777--2-2--222--3-3--333--5-5--555--|
E|---5-5--555--0-0--000----------------------|

e|-------------------------------|2:11
B|-------10------8-----8--10--5--|
G|----9-------9------9-----------|     
D|--10-10----9-10---9-9----------|
A|-------------------------------|
E|-------------------------------|

e|--------------------------------------------------------|2:24 
B|--10-10--10-10--10-8-8--8-8--8-7-7--7-7--7-9-9--9-9--9--|
G|---9--9---9--9---9-9-9--9-9--9-7-7--7-7--7-9-9--9-9--9--|
D|--10-10--10-10--10-9-9--9-9--9-7-7--7-7--7-9-9--9-9--9--|
A|--------------------------------------------------------|
E|--------------------------------------------------------|

e|-------------------------------------------|2:40
B|-------------------------------------------|  
G|-----------------------5-5--xxx------------|  
D|---7-7--xxx--2-2--xxx--5-5--xxx--5-5--xxx--|  
A|---7-7--xxx--2-2--xxx--3-3--xxx--5-5--xxx--|  
E|---5-5--xxx--0-0--xxx------------3-3--xxx--|  

e|----------------------------------------0--|2:47
B|----------------------------------------0--|  
G|-----------------------5-5--xxx---------0--|  
D|---7-7--xxx--2-2--xxx--5-5--xxx--5-5--xx0--|  
A|---7-7--xxx--2-2--xxx--3-3--xxx--5-5--xx---|  
E|---5-5--xxx--0-0--xxx------------3-3--xx---|  

e|-------------------------------------------|2:53  
B|-------------------------------------------|  
G|-----------------------5-5--555------------|     
D|---7-7--777--2-2--222--5-5--555--5-5--555--|x2  
A|---7-7--777--2-2--222--3-3--333--5-5--555--|  
E|---5-5--555--0-0--000------------3-3--333--|

e|-------------------------------------------|3:06
B|-------------------------------------------|
G|-----------------------5-5--555--7-7--777--|     
D|---7-7--777--2-2--222--5-5--555--7-7--777--|x2
A|---7-7--777--2-2--222--3-3--333--5-5--555--|
E|---5-5--555--0-0--000----------------------|

e|-------|3:19 
B|-------|
G|-------|
D|---7\--|
A|---5\--|
E|---5\--|
Tap to rate this tab
# A B C D E F G H I J K L M N O P Q R S T U V W X Y Z