Guitaretab - guitar tabs
Song name
# A B C D E F G H I J K L M N O P Q R S T U V W X Y Z

All-american Rejects - Gives You Hell tab

Gives You Hell - AAR

cjnotout@hotmail.co.uk

guitar enters at 0:43 the same part is played again later in the verse

e|--------------------|
b|--------------------|
g|--------------------|
d|--------------------|
a|--------------------|
e|----5-4-2-----------|

Pre-Chorus

|-------------(0)---|
|--------------2----|        You can choose whether or not to play the chord
|----------0--(x)---|        Either way sounds right
|-------2-----(2)---|
|----0--------(0)---|
|-------------------|

Chorus

|-------------------------------------------------------------------|
|-------------------------------------------------------------------|
|-----------6-6----2-2----2-2--------------6-6----2-2----2-2--------|
|----2-2----6-4----2-2----2-2-------2-2----6-6----2-2----2-2---x2---|
|----2-2----4-4----0-0----0-0-------2-2----4-4----0-0----0-0--------|
|----0-0----------------------------0-0-----------------------------|


Guitar Riff/Solo
[ Tab from: http://www.guitaretab.com/a/all-american-rejects/117450.html ]
|--------------------------------------------------------|
|----12^12-9-10p9--------12^12-9-10p9----12--14--12------|
|-----------------11------------------11-----x---x-------|
|--------------------9-----------------------11--9-------|
|--------------------------------------------------------|
|--------------------------------------------------------|

Bridge

|---------------------------------------------------------------------------|
|---------------------------------------------------------------------------|
|----6--------2--------------------------2----6--------2--------------------|
|----6--------2--------2--------4----5---2----6--------2--------4--------2--|
|----4--------0--------2--------4----5---0----4--------0--------4--------2--|
|----------------------0--------2----3--------------------------2--------0--|

Final Chorus

|-------------------------------------------------------------------------|
|-------------------------------------------------------------------------|
|------------------2-2----2-2--------6-6----4-4------------------Repeat---|
|----2-2----2-2----2-2----2-2--------6-6----4-4----2-2----2-2-----Until---|
|----2-2----2-2----0-0----0-0--------4-4----2-2----2-2----2-2----Finish---|
|----0-0----0-0------------------------------------0-0----0-0-------------|




Related for Gives You Hell tab
×
Gives You Hell