Song name
# A B C D E F G H I J K L M N O P Q R S T U V W X Y Z

All-american Rejects - 1111 Pm tab

intro
e|-------------------------|
b|-------------------------|
g|-------------------------|
d|-1~---66666666--33333333-|
a|-1~---66666666--33333333-|
d|-1~---66666666--33333333-|

e|-------------------------------------------------|
b|-------------------------------------------------|
g|-6666666666666666--------------------------9-7-2-|
d|-6666666666666666--66666666--33333333-4~---9-7-2-|
a|-4444444444444444--66666666--33333333-4~---7-5-0-|
d|-------------------66666666--33333333-4~---------|

verse
e|-------------------------------------|
b|-------------------------------------|
g|-33333333-55555555-66666666-88888888-|
d|-33333333-55555555-66666666-88888888-|
a|-11111111-33333333-44444444-66666666-|
d|-------------------------------------|

e|-------------------------------------|
b|-------------------------------------|
g|-33333333-55555555-66666666----------|
d|-33333333-55555555-66666666-11111111-|
a|-11111111-33333333-44444444-11111111-|
d|----------------------------11111111-|

pre-chorus
e|-------------------------|
b|-------------------------|
g|-------------33333-777-9-|
d|-44444-66666-33333-777-9-|
a|-44444-66666-11111-555-7-|
d|-44444-66666-------------|

e|----------------------------|
b|----------------------------|
g|-------------33333333-4-5-6-|
d|-44444-66666-33333333-4-5-6-|
a|-44444-66666-11111111-2-3-4-|
d|-44444-66666----------------|

chorus
e|------------------------------------|
b|------------------------------------|
g|-6666666666666666-------------------| x2
d|-6666666666666666-66666666-33333333-|
a|-4444444444444444-66666666-33333333-|
d|------------------66666666-33333333-|

e|------------------------------------|
b|------------------------------------|
g|------------------------------------|
d|-1111111111111111-66666666-33333333-|
a|-1111111111111111-66666666-33333333-|
d|-1111111111111111-66666666-33333333-|

repeat verse
repeat pre-chorus
repeat chorus

bridge
e|----------------------------------------------------------|
b|----------------------------------------------------------|
g|----------------------------------------------------------|
d|-4444444444444444-3333333333333333-1111111111111111-1-1-1-|
a|-4444444444444444-3333333333333333-1111111111111111-1-1-1-|
d|-4444444444444444-3333333333333333-1111111111111111-1-1-1-|

e|-------------------------|
b|-------------------------|
g|-------------33333-777-9-|
d|-44444-66666-33333-777-9-|
a|-44444-66666-11111-555-7-|
d|-44444-66666-------------|

e|------------------------------|
b|------------------------------|
g|-------------33333333-4-5-6-7-|
d|-44444-66666-33333333-4-5-6-7-|
a|-44444-66666-11111111-2-3-4-5-|
d|-44444-66666------------------|

final chorus
e|-------------------------------------------------------|
b|-------------------------------------------------------|
g|--------------------6666666666666666-------------------|
d|1/66666666-33333333-6666666666666666-66666666-33333333-|
a|1/66666666-33333333-4444444444444444-66666666-33333333-|
d|1/66666666-33333333------------------66666666-33333333-|

e|------------------------------------|
b|------------------------------------|
g|------------------------------------|
d|-1111111111111111-66666666-33333333-|
a|-1111111111111111-66666666-33333333-|
d|-1111111111111111-66666666-33333333-|

outro
e|--------------------------------------------------------------|
b|--------------------------------------------------------------|
g|----------------------------------------------------6~ld------|
d|-4444444444444444-3333333333333333-111111111111-1-1-6~ld------|
a|-4444444444444444-3333333333333333-111111111111-1-1-4~ld------|
d|-4444444444444444-3333333333333333-111111111111-1-1-----------|

legend- / = slide
        ~ = hold note
       ld = let die

almost 100% accurate, i hope. i got this tab in a different version from someone else, 
found out it can be played like this too. enjoy
Tap to rate this tab
 
# A B C D E F G H I J K L M N O P Q R S T U V W X Y Z