Guitaretab - guitar tabs
Song name
# A B C D E F G H I J K L M N O P Q R S T U V W X Y Z

All-american Rejects - Last Song tab

Song: The Last Song
Artist: The All-American Rejects
Album: The All-American Rejects
Release Date: Feb 04, 2003
Label: Dreamworks SKG
	The All-American Rejects Are:
Vaocals: Tyson Ritter
Guitars: Nick Wheeler
Guitars: Mike Kennerty
Bass Guitars: Tyson Ritter
Drums: Chris Gaylor
	The All-American Rejects Use:
Sennheiser Microphones, Gibson, Fender, and Epiphone
guitars, Line 6 Pedals, Ernie Ball Strings, Dunlop picks,
Tama Drums, Sabian Symbols and Vater Drum Sticks.

Standard Tuning
e|--
b|--
g|--
d|--
a|--
e|--

Tabbed By: Rhy Chermside
I\'m constantly improving and correcting my tabs, so if you have any suggestions email me.
	BeatOnTheBrat91@hotmail.com

Guitar 1 (Lead) Intro: (Clean) (If you start the song with some feedback, you can
kind of mimic the radio at the begining.)
e|-------------8-9~------------------8-9~-----------------8-9~-------|
b|------9-6~~~------9~~~~-----9-6~~~------9~~~~----9-6~~~------9~~~~-|
g|--6~~~~~~~~~-------------------------------------------------------|
d|------------------------8~~~~~~~~~~~~~~~~----6~~~~~~~~-------------|
a|-------------------------------------------------------------------|
e|-------------------------------------------------------------------|

Guitar 2 (Rythm) Intro: (Light Distortion) 
e|-------------------------------------------------------|
b|-------------------------------------------------------|
g|--6~~~~~~~~--------------------------------------------|
d|--6~~~~~~~~-------------8~~~~~~~~------------6~~~~~~~~-|
a|--4~~~~~~~~-------------8~~~~~~~~------------6~~~~~~~~-|
e|------------------------6~~~~~~~~------------4~~~~~~~~-|





Guitar 1 Intro Part II:
e|------------------------------------8~~--9~--------|
b|-----------9~~--6~~~~~~~~~-------------------9~~~~-|
g|--6~~~~~~~~~---------------------------------------|
d|---------------------------------------------------|
a|---------------------------------------------------|
e|---------------------------------------------------|

Guitar 2 Intro Part II:
e|---------------------------------------------------|
b|---------------------------------------------------|
g|--6~~~~~~~~----------------------------------------|
d|--6~~~~~~~~----------------------------------------|
a|--4~~~~~~~~----------------------------------------|
e|---------------------------------------------------|

   This may be the last thing that I write for long

Guitar 1 Intro part II:
e|------------------------------------8~~--9~--------|
b|-----------9~~--6~~~~~~~~~-------------------9~~~~-|
g|---------------------------------------------------|
d|--8~~~~~~~~~---------------------------------------|
a|---------------------------------------------------|
e|---------------------------------------------------|

Guitar 2 Intro Part II:
e|---------------------------------------------------|
b|---------------------------------------------------|
g|---------------------------------------------------|
d|--8~~~~~~~~----------------------------------------|
a|--8~~~~~~~~----------------------------------------|
e|--6~~~~~~~~----------------------------------------|
    Can you hear me smiling when I sing this song for you,

Guitar 1 Intro part II:
e|------------------------------------8~~--9~--------9~~~~~-|
b|-----------9~~--6~~~~~~~~~-------------------9~~~~--------|
g|----------------------------------------------------------|
d|--8~~~~~~~~~----------------------------------------------|
a|----------------------------------------------------------|
e|----------------------------------------------------------|
    

Guitar 2 Intro Part II:
e|----------------------------------------------------------|
b|----------------------------------------------------------|
g|---------------------------------------------------3~~~~~-|
d|--4~~~~~~~~----------------------------------------1~~~~~-|
a|--4~~~~~~~~-----------------------------------------------|
e|--6~~~~~~~~-----------------------------------------------|
                                         and only you





Guitar 1 & 2 Verse:
e|--------------------------------------------------------------|
b|--------------------------------------------------------------|
g|--6--6-6-6-6-6-6-6-6-6-6-6-6-6-6-6-6-6-6-6-6-6-6-6-6-6-6-6-6--|
d|--6--6-6-6-6-6-6-6-6-6-6-6-6-6-6-6-6-6-6-6-6-6-6-6-6-6-6-6-6--|
a|--4--4-4-4-4-4-4-4-4-4-4-4-4-4-4-4-4-4-4-4-4-4-4-4-4-4-4-4-4--|
e|--------------------------------------------------------------|
       . . . . . . . . . . . . . . . . . . . . . . . . . . . .
       As I  leave  will  you  be  someone   to  say  goodbye
      
Guitar 1 & 2 Verse:
e|--------------------------------------------------------------|
b|--------------------------------------------------------------|
g|--3--3-3-3-3-3-3-3-3-3-3-3-3-3-3-3-3-3-3-3-3-3-3-3-3-3-3-3-3--|
d|--3--3-3-3-3-3-3-3-3-3-3-3-3-3-3-3-3-3-3-3-3-3-3-3-3-3-3-3-3--|
a|--1--1-1-1-1-1-1-1-1-1-1-1-1-1-1-1-1-1-1-1-1-1-1-1-1-1-1-1-1--|
e|--------------------------------------------------------------|
       . . . . . . . . . . . . . . . . . . . . . . . . . . . . 
       As I  leave  will  you  be  someone   to  wipe your eye

Guitar 1 & 2 Verse:
e|--------------------------------------------------------------|
b|--------------------------------------------------------------|
g|--------------------------------------------------------------|
d|--6--6-6-6-6-6-6-6-6-6-6-6-6-6-6-6-6-6-6-6-6-6-6-6-6-6-6-6-6--|
a|--6--6-6-6-6-6-6-6-6-6-6-6-6-6-6-6-6-6-6-6-6-6-6-6-6-6-6-6-6--|
e|--4--4-4-4-4-4-4-4-4-4-4-4-4-4-4-4-4-4-4-4-4-4-4-4-4-4-4-4-4--|
       . . . . . . . . . . . . . . . 
       My foot is in the door,  and    you    can\'t   stop  me 

Guitar 1 Verse:
e|----------------------------------------------------------|
b|----------------------------------------------------------|
g|---------------3~----------------3~----------------3~-----|
d|------------------4~~~--------------4~~~--------------4~~-|
a|------------4~~---------------4~~---------------4~~-------|
e|-----2--2~------------2--2~---------------2--2~-----------|

Guitar 2 Verse:
e|----------------------------------------------------------|
b|----------------------------------------------------------|
g|----------------------------------------------------------|
d|--4-4-4-4-4-4-4-4-4-4-4-4-4-4-4-4-4-4-4-4-4-4-4-4-4-4-4-4-|
a|--4-4-4-4-4-4-4-4-4-4-4-4-4-4-4-4-4-4-4-4-4-4-4-4-4-4-4-4-|
e|--2-2-2-2-2-2-2-2-2-2-2-2-2-2-2-2-2-2-2-2-2-2-2-2-2-2-2-2-|
      now





GUitar 1 Interlude:
e|------------------------------------------------------------------------------------|
b|-----------------------------------------------------2~~~~--------------------------|
g|-------3~--------------------------------------2~~~~--------------------------------|
d|-------3~--------------------------------------------------2~~~~--------------------|
a|--15/1-1~--4~~-0~~------------------------------------------------------------------|
e|--15/1------------------------------------------------------------------------------|

Guitar 2 Interlude:
e|------------------------------------------------------------------------------------|
b|------------------------------------------------------------------------------------|
g|-------3----3----3----3----3----3----3----3-----------------------------------------|
d|-------3----3----3----3----3----3----3----3----4----4----4----4----4----4----4----4-|
a|-------1----1----1----1----1----1----1----1----4----4----4----4----4----4----4----4-|
e|-----------------------------------------------2----2----2----2----2----2----2----2-|
       You wanted the best It wasn\'t me       Will you give it back now I\'ll take the lead

GUitar 1 Interlude:
e|-------------------------------------------------------------------------------|
b|------------------------------------------------2~~~~--------------------------|
g|--6~~-------------------------------------2~~~~--------------------------------|
d|--6~~-------------------------------------------------2~~~~--------------------|
a|--4~~--4~~-0~~-----------------------------------------------------------------|
e|-------------------------------------------------------------------------------|

Guitar 2 Interlude:
e|-------------------------------------------------------------------------------|
b|-------------------------------------------------------------------------------|
g|--6----6----6----6----6----6----6----6-----------------------------------------|
d|--6----6----6----6----6----6----6----6----6----6----6----6----6----6----6----6-|
a|--4----4----4----4----4----4----4----4----6----6----6----6----6----6----6----6-|
e|------------------------------------------4----4----4----4----4----4----4----4-|
          When   theres   no   more   room   to   make   it   grow

GUitar 1 Interlude:
e|------------------------------------------------------------------------------------|
b|-----------------------------------------------------2~~~~--------------------------|
g|-------3~--------------------------------------2~~~~--------------------------------|
d|-------3~--------------------------------------------------2~~~~--------------------|
a|-------1~--4~~-0~~------------------------------------------------------------------|
e|------------------------------------------------------------------------------------|

Guitar 2 Interlude:
e|------------------------------------------------------------------------------------|
b|------------------------------------------------------------------------------------|
g|-------3----3----3----3----3----3----3----3-----------------------------------------|
d|-------3----3----3----3----3----3----3----3----4----4----4----4----4----4----4----4-|
a|-------1----1----1----1----1----1----1----1----4----4----4----4----4----4----4----4-|
e|-----------------------------------------------2----2----2----2----2----2----2----2-|
   I\'ll see you again you\'ll pretend your naive Is this what you want is this wat you need

GUitar 1 Interlude:
e|-------------------------------------------------------------------------------|
b|------------------------------------------------2~~~~--------------------------|
g|--6~~-------------------------------------2~~~~--------------------------------|
d|--6~~-------------------------------------------------2~~~~--------------------|
a|--4~~--4~~-0~~-----------------------------------------------------------------|
e|-------------------------------------------------------------------------------|

Guitar 2 Interlude:
e|-------------------------------------------------------------------------------|
b|-------------------------------------------------------------------------------|
g|--6----6----6----6----6----6----6----6-----------------------------------------|
d|--6----6----6----6----6----6----6----6----6----6----6----6----6----6----6----6-|
a|--4----4----4----4----4----4----4----4----6----6----6----6----6----6----6----6-|
e|------------------------------------------4----4----4----4----4----4----4----4-|
           How    things    end    up    let    me    know




Guitar 1 and 2 Chorus:
e|--------------------------------------------------------------------------------------|
b|--------------------------------------------------------------------------------------|
g|--6--6--6--6--6--6--6--6--6--6--6--6--6--6--------------------------------------------|
d|--6--6--6--6--6--6--6--6--6--6--6--6--6--6---4--4--4--4--4--4--4--4--4--4--4--4--4--4-|
a|--4--4--4--4--4--4--4--4--4--4--4--4--4--4---4--4--4--4--4--4--4--4--4--4--4--4--4--4-|
e|---------------------------------------------2--2--2--2--2--2--2--2--2--2--2--2--2--2-|
    As  I  go,  remember  all  the  simple,   things you know My mind is just a cruthch and

Guitar 1 and 2 Chorus:
e|--------------------------------------------------------------------------------------|
b|--------------------------------------------------------------------------------------|
g|--3--3--3--3--3--3--3--3--3--3--3--3--3--3--------------------------------------------|
d|--3--3--3--3--3--3--3--3--3--3--3--3--3--3---6--6--6--6--6--6--6--6--6--6--6--6--6--6-|
a|--1--1--1--1--1--1--1--1--1--1--1--1--1--1---6--6--6--6--6--6--6--6--6--6--6--6--6--6-|
e|---------------------------------------------4--4--4--4--4--4--4--4--4--4--4--4--4--4-|
    I still hope, that i will miss you when     i\'m  gone  This  is  the  last  song





Guitar 1 Verse:
e|--------------------------------------------------------------|
b|------------------6^x-6-----------------------------6^x-6-----|
g|--6---------------5-x-5/2---------------------------5-x-5/2---|
d|--6-----------------------------------------------------------|
a|--4-----------------------------------------------------------|
e|--------------------------------------------------------------|

Guitar 2 Verse:
e|--------------------------------------------------------------|
b|--------------------------------------------------------------|
g|--6--6-6-6-6-6-6-6-6-6-6-6-6-6-6-6-6-6-6-6-6-6-6-6-6-6-6-6-6--|
d|--6--6-6-6-6-6-6-6-6-6-6-6-6-6-6-6-6-6-6-6-6-6-6-6-6-6-6-6-6--|
a|--4--4-4-4-4-4-4-4-4-4-4-4-4-4-4-4-4-4-4-4-4-4-4-4-4-4-4-4-4--|
e|--------------------------------------------------------------|
       . . . . . . . . . . . . . . . . . . . . . . . . . . . .
       The  hearts  start breaking as the year is gone

Guitar 1 Verse:
e|--------------------------------------------------------------|
b|------------------6^x-6-----------------------------6^x-6-----|
g|--3---------------5-x-5/2---------------------------5-x-5/2---|
d|--3-----------------------------------------------------------|
a|--1-----------------------------------------------------------|
e|--------------------------------------------------------------|

Guitar 2 Verse:
e|--------------------------------------------------------------|
b|--------------------------------------------------------------|
g|--3--3-3-3-3-3-3-3-3-3-3-3-3-3-3-3-3-3-3-3-3-3-3-3-3-3-3-3-3--|
d|--3--3-3-3-3-3-3-3-3-3-3-3-3-3-3-3-3-3-3-3-3-3-3-3-3-3-3-3-3--|
a|--1--1-1-1-1-1-1-1-1-1-1-1-1-1-1-1-1-1-1-1-1-1-1-1-1-1-1-1-1--|
e|--------------------------------------------------------------|
       . . . . . . . . . . . . . . . . . . . . . . . . . . . .    
       The  dream\'s  beginning as  the time  rolls on

Guitar 1 Verse:
e|--------------------------------------------------------------|
b|--------------------------------------------------------------|
g|--------------------------------------------------------------|
d|--6~------------6~~~~~~~------6~------------6~~~~~~~----------|
a|--6~-------6~~~---------------6~-------6~~~-------------------|
e|--4~--4~~~--------------------4~--4~~~------------------------|
[ Tab from: http://www.guitaretab.com/a/all-american-rejects/136543.html ]
Guitar 2 Verse:
e|--------------------------------------------------------------|
b|--------------------------------------------------------------|
g|--------------------------------------------------------------|
d|--6--6-6-6-6-6-6-6-6-6-6-6-6-6-6-6-6-6-6-6-6-6-6-6-6-6-6-6-6--|
a|--6--6-6-6-6-6-6-6-6-6-6-6-6-6-6-6-6-6-6-6-6-6-6-6-6-6-6-6-6--|
e|--4--4-4-4-4-4-4-4-4-4-4-4-4-4-4-4-4-4-4-4-4-4-4-4-4-4-4-4-4--|
       . . . . . . . . . . . . . . . . . . . . . . . . . . . .
       It  seems  so  surreal,       now   I   sing   it

Guitar 1 Verse:
e|--------------------------------------------------------------|
b|------------------6^x-6-----------------------------6^x-6-----|
g|--6---------------5-x-5/2---------------------------5-x-5/2---|
d|--6-----------------------------------------------------------|
a|--4-----------------------------------------------------------|
e|--------------------------------------------------------------|

Guitar 2 Verse:
e|--------------------------------------------------------------|
b|--------------------------------------------------------------|
g|--6--6-6-6-6-6-6-6-6-6-6-6-6-6-6-6-6-6-6-6-6-6-6-6-6-6-6-6-6--|
d|--6--6-6-6-6-6-6-6-6-6-6-6-6-6-6-6-6-6-6-6-6-6-6-6-6-6-6-6-6--|
a|--4--4-4-4-4-4-4-4-4-4-4-4-4-4-4-4-4-4-4-4-4-4-4-4-4-4-4-4-4--|
e|--------------------------------------------------------------|
       . . . . . . . . . . . . . . . . . . . . . . . . . . . .
       Somehow  I  knew  that  it  would be  this  way

Guitar 1 Verse:
e|--------------------------------------------------------------|
b|------------------6^x-6-----------------------------6^x-6-----|
g|--3---------------5-x-5/2---------------------------5-x-5/2---|
d|--3-----------------------------------------------------------|
a|--1-----------------------------------------------------------|
e|--------------------------------------------------------------|

Guitar 2 Verse:
e|--------------------------------------------------------------|
b|--------------------------------------------------------------|
g|--3--3-3-3-3-3-3-3-3-3-3-3-3-3-3-3-3-3-3-3-3-3-3-3-3-3-3-3-3--|
d|--3--3-3-3-3-3-3-3-3-3-3-3-3-3-3-3-3-3-3-3-3-3-3-3-3-3-3-3-3--|
a|--1--1-1-1-1-1-1-1-1-1-1-1-1-1-1-1-1-1-1-1-1-1-1-1-1-1-1-1-1--|
e|--------------------------------------------------------------|
       . . . . . . . . . . . . . . . . . . . . . . . . . . . .   
       Somehow  I  knew  that  it  would  slowly  fade

Guitar 1 Verse:
e|--------------------------------------------------------------|
b|--------------------------------------------------------------|
g|--------------------------------------------------------------|
d|--6~------------6~~~~~~~------6~------------6~~~~~~~----------|
a|--6~-------6~~~---------------6~-------6~~~-------------------|
e|--4~--4~~~--------------------4~--4~~~------------------------|

Guitar 2 Verse:
e|--------------------------------------------------------------|
b|--------------------------------------------------------------|
g|--------------------------------------------------------------|
d|--6--6-6-6-6-6-6-6-6-6-6-6-6-6-6-6-6-6-6-6-6-6-6-6-6-6-6-6-6--|
a|--6--6-6-6-6-6-6-6-6-6-6-6-6-6-6-6-6-6-6-6-6-6-6-6-6-6-6-6-6--|
e|--4--4-4-4-4-4-4-4-4-4-4-4-4-4-4-4-4-4-4-4-4-4-4-4-4-4-4-4-4--|
       . . . . . . . . . . . . . . . 
       Now    I\'m   gone    just    try    and   stop    me 

Guitar 1 Verse:
e|----------------------------------------------------------|
b|----------------------------------------------------------|
g|---------------3~----------------3~----------------3~-----|
d|------------------4~~~--------------4~~~--------------4~~-|
a|------------4~~---------------4~~---------------4~~-------|
e|-----2--2~------------2--2~---------------2--2~-----------|

Guitar 2 Verse:
e|----------------------------------------------------------|
b|----------------------------------------------------------|
g|----------------------------------------------------------|
d|--4-4-4-4-4-4-4-4-4-4-4-4-4-4-4-4-4-4-4-4-4-4-4-4-4-4-4-4-|
a|--4-4-4-4-4-4-4-4-4-4-4-4-4-4-4-4-4-4-4-4-4-4-4-4-4-4-4-4-|
e|--2-2-2-2-2-2-2-2-2-2-2-2-2-2-2-2-2-2-2-2-2-2-2-2-2-2-2-2-|
      now





GUitar 1 Interlude:
e|------------------------------------------------------------------------------------|
b|-----------------------------------------------------2~~~~--------------------------|
g|-------3~--------------------------------------2~~~~--------------------------------|
d|-------3~--------------------------------------------------2~~~~--------------------|
a|--15/1-1~--4~~-0~~------------------------------------------------------------------|
e|--15/1------------------------------------------------------------------------------|

Guitar 2 Interlude:
e|------------------------------------------------------------------------------------|
b|------------------------------------------------------------------------------------|
g|-------3----3----3----3----3----3----3----3-----------------------------------------|
d|-------3----3----3----3----3----3----3----3----4----4----4----4----4----4----4----4-|
a|-------1----1----1----1----1----1----1----1----4----4----4----4----4----4----4----4-|
e|-----------------------------------------------2----2----2----2----2----2----2----2-|
       You wanted the best It wasn\'t me       Will you give it back now I\'ll take the lead

GUitar 1 Interlude:
e|-------------------------------------------------------------------------------|
b|------------------------------------------------2~~~~--------------------------|
g|--6~~-------------------------------------2~~~~--------------------------------|
d|--6~~-------------------------------------------------2~~~~--------------------|
a|--4~~--4~~-0~~-----------------------------------------------------------------|
e|-------------------------------------------------------------------------------|

Guitar 2 Interlude:
e|-------------------------------------------------------------------------------|
b|-------------------------------------------------------------------------------|
g|--6----6----6----6----6----6----6----6-----------------------------------------|
d|--6----6----6----6----6----6----6----6----6----6----6----6----6----6----6----6-|
a|--4----4----4----4----4----4----4----4----6----6----6----6----6----6----6----6-|
e|------------------------------------------4----4----4----4----4----4----4----4-|
          When   theres   no   more   room   to   make   it   grow

GUitar 1 Interlude:
e|------------------------------------------------------------------------------------|
b|-----------------------------------------------------2~~~~--------------------------|
g|-------3~--------------------------------------2~~~~--------------------------------|
d|-------3~--------------------------------------------------2~~~~--------------------|
a|-------1~--4~~-0~~------------------------------------------------------------------|
e|------------------------------------------------------------------------------------|

Guitar 2 Interlude:
e|------------------------------------------------------------------------------------|
b|------------------------------------------------------------------------------------|
g|-------3----3----3----3----3----3----3----3-----------------------------------------|
d|-------3----3----3----3----3----3----3----3----4----4----4----4----4----4----4----4-|
a|-------1----1----1----1----1----1----1----1----4----4----4----4----4----4----4----4-|
e|-----------------------------------------------2----2----2----2----2----2----2----2-|
   I\'ll see you again you\'ll pretend your naive Is this what you want is this wat you need

GUitar 1 Interlude:
e|-------------------------------------------------------------------------------|
b|------------------------------------------------2~~~~--------------------------|
g|--6~~-------------------------------------2~~~~--------------------------------|
d|--6~~-------------------------------------------------2~~~~--------------------|
a|--4~~--4~~-0~~-----------------------------------------------------------------|
e|-------------------------------------------------------------------------------|

Guitar 2 Interlude:
e|-------------------------------------------------------------------------------|
b|-------------------------------------------------------------------------------|
g|--6----6----6----6----6----6----6----6-----------------------------------------|
d|--6----6----6----6----6----6----6----6----6----6----6----6----6----6----6----6-|
a|--4----4----4----4----4----4----4----4----6----6----6----6----6----6----6----6-|
e|------------------------------------------4----4----4----4----4----4----4----4-|
           How    things    end    up    let    me    know





Guitar 1 and 2 Chorus:
e|--------------------------------------------------------------------------------------|
b|--------------------------------------------------------------------------------------|
g|--6--6--6--6--6--6--6--6--6--6--6--6--6--6--------------------------------------------|
d|--6--6--6--6--6--6--6--6--6--6--6--6--6--6---4--4--4--4--4--4--4--4--4--4--4--4--4--4-|
a|--4--4--4--4--4--4--4--4--4--4--4--4--4--4---4--4--4--4--4--4--4--4--4--4--4--4--4--4-|
e|---------------------------------------------2--2--2--2--2--2--2--2--2--2--2--2--2--2-|
    As  I  go,  remember  all  the  simple,   things you know My mind is just a cruthch and

Guitar 1 and 2 Chorus:
e|-----------------------------------------------------------------------------------------|
b|-----------------------------------------------------------------------------------------|
g|--3--3--3--3--3--3--3--3--3--3--3--3--3--3-----------------------------------------------|
d|--3--3--3--3--3--3--3--3--3--3--3--3--3--3---6--6--6--6--6--6--6--6--6--6--6--6--6--6----|
a|--1--1--1--1--1--1--1--1--1--1--1--1--1--1---6--6--6--6--6--6--6--6--6--6--6--6--6--6-0~-|
e|---------------------------------------------4--4--4--4--4--4--4--4--4--4--4--4--4--4-0~-|
    I still hope, that i will miss you when     i\'m  gone  This  is  the  last  song





Guitar 1 Bridge: (Hold the last note as long as you can.)
e|-------------8-9~------------------8-9~-----------------8-9~-------|
b|------9-6~~~------9~~~~-----9-6~~~------9~~~~----9-6~~~------9~~~~-|
g|--6~~~~~~~~~-------------------------------------------------------|
d|------------------------8~~~~~~~~~~~~~~~~----6~~~~~~~~-------------|
a|-------------------------------------------------------------------|
e|-------------------------------------------------------------------|

Guitar 2 Bridge:
e|-------------------------------------------------------|
b|-------------------------------------------------------|
g|--6~~~~~~~~--------------------------------------------|
d|--6~~~~~~~~-------------8~~~~~~~~------------6~~~~~~~~-|
a|--4~~~~~~~~-------------8~~~~~~~~------------6~~~~~~~~-|
e|------------------------6~~~~~~~~------------4~~~~~~~~-|




GUitar 2 Bridge part II: (Clean)
e|----------------------------------------------------------------------------------------------------------|
b|----------------------------------------------------------------------------------------------------------|
g|--7-7-7-7-7-7-7-7-7-7-7-7-7-7-7-7-7-7-7-7-7-7-7-7-7-7-7-7-7-7-7-7-7-7-7-7-7-7-7-7-7-7-7-7-7-7-7-7-7-7-7-7-|
d|--7-7-7-7-7-7-7-7-7-7-7-7-7-7-7-7-7-7-7-7-7-7-7-7-7-7-7-7-7-7-7-7-7-7-7-7-7-7-7-7-7-7-7-7-7-7-7-7-7-7-7-7-|
a|--5-5-5-5-5-5-5-5-5-5-5-5-5-5-5-5-5-5-5-5-5-5-5-5-5-5-5-5-5-5-5-5/5-5-5-5-5-5-5-5-5-5-5-5-5-5-5-5-5-5-5-5-|
e|----------------------------------------------------------------------------------------------------------|
            And   will    you   need   me   now?  You\'ll find a way somehow    you  want  it  too     you    

Guitar 2 Bridge Part II: Clean
e|-------------------|
b|-------------------|
g|7-7-7-7-7-7-7-7-7~-|
d|7-7-7-7-7-7-7-7-7~-|
a|5-5-5-5-5-5-5-5-5~-|
e|-------------------|
  want    it    too




Guitar 1 Solo:
e|----------------------------------------------------------------------------|
b|--6-6-6-6-6-6-6-6/8-8-8-8-8-8-8-8/11-11-11-11-11-11-11-10-11/13-13-13-13-13-|
g|--6-6-6-6-6-6-6-6/8-8-8-8-8-8-8-8/11-11-11-11-11-11-11-10-11/13-13-13-13-13-|
d|----------------------------------------------------------------------------|
a|----------------------------------------------------------------------------|
e|----------------------------------------------------------------------------|





Guitar 1 and 2 Chorus:
e|--------------------------------------------------------------------------------------|
b|--------------------------------------------------------------------------------------|
g|--6--6--6--6--6--6--6--6--6--6--6--6--6--6--------------------------------------------|
d|--6--6--6--6--6--6--6--6--6--6--6--6--6--6---4--4--4--4--4--4--4--4--4--4--4--4--4--4-|
a|--4--4--4--4--4--4--4--4--4--4--4--4--4--4---4--4--4--4--4--4--4--4--4--4--4--4--4--4-|
e|---------------------------------------------2--2--2--2--2--2--2--2--2--2--2--2--2--2-|
    As  I  go,  remember  all  the  simple,   things you know My mind is just a cruthch and

Guitar 1 and 2 Chorus:
e|--------------------------------------------------------------------------------------|
b|--------------------------------------------------------------------------------------|
g|--3--3--3--3--3--3--3--3--3--3--3--3--3--3--------------------------------------------|
d|--3--3--3--3--3--3--3--3--3--3--3--3--3--3---6--6--6--6--6--6--6--6--6--6--6--6--6--6-|
a|--1--1--1--1--1--1--1--1--1--1--1--1--1--1---6--6--6--6--6--6--6--6--6--6--6--6--6--6-|
e|---------------------------------------------4--4--4--4--4--4--4--4--4--4--4--4--4--4-|
    I still hope, that i will miss you when     i\'m  gone         the  last  songGuitar 

1 and 2 Chorus:
e|--------------------------------------------------------------------------------------|
b|--------------------------------------------------------------------------------------|
g|--6--6--6--6--6--6--6--6--6--6--6--6--6--6--------------------------------------------|
d|--6--6--6--6--6--6--6--6--6--6--6--6--6--6---4--4--4--4--4--4--4--4--4--4--4--4--4--4-|
a|--4--4--4--4--4--4--4--4--4--4--4--4--4--4---4--4--4--4--4--4--4--4--4--4--4--4--4--4-|
e|---------------------------------------------2--2--2--2--2--2--2--2--2--2--2--2--2--2-|
    As  I  go,  remember  all  the  simple,   things you know My mind is just a cruthch and

Guitar 1 and 2 Chorus:
e|-----------------------------------------------------------------------------------------|
b|-----------------------------------------------------------------------------------------|
g|--3--3--3--3--3--3--3--3--3--3--3--3--3--3--------------------------------------------6~-|
d|--3--3--3--3--3--3--3--3--3--3--3--3--3--3---6--6--6--6--6--6--6--6--6--6--6--6--6--6-6~-|
a|--1--1--1--1--1--1--1--1--1--1--1--1--1--1---6--6--6--6--6--6--6--6--6--6--6--6--6--6-4~-|
e|---------------------------------------------4--4--4--4--4--4--4--4--4--4--4--4--4--4----|
    I still hope, that i will miss you when     i\'m  gone  This  is  the  last  song
Related for Last Song tab
Advertisement will be closed in 10 seconds