Song name
# A B C D E F G H I J K L M N O P Q R S T U V W X Y Z

All Insane Kids - Hero tab

Intro (Light Distortion)
e|--------------------------------------------------|
B|--------------------------------------------------|
G|--------------------------------------------------|
D|--0---------3------8----5-----0------ ------------|
A|--0x32------3x16---8x8--5x8---0x16----------------|
D|--0---------3------8----5-----0-------------------|
   PM        PM     PM   PM    PM
Background riff: 

e|--------------------------------------------------|
B|--------------------------------------------------|
G|--------------------------------------------------|  Repeat many times.
D|--------------------------------------------------|
A|----5-------5-------------------------------------|
D|--0---0---0---0-----------------------------------|
   PM  PM  PM  PM

Buildup:

e|--------------------------------------------------|
B|--------------------------------------------------|
G|--------------------------------------------------|
D|--3----------5--------3-------5-------------------|
A|--3x16-------5x16-----3-------5-------------------|
D|--3----------5--------3-------5-------------------|
    PM         PM       PM      PM      Gradually release palm mute and pick harder

Heavy Distortion here on out
e|--------------------------------------------------|
B|--------------------------------------------------|
G|--------------------------------------------------|
D|--0-0--3-0-3-0---0-3-5-5/6--6-6-6-----------------|
A|--0-0--3-0-3-0---0-3-5-5/6--6-6-6-----------------|
D|--0-0--3-0-3-0---0-3-5-5/6--6-6-6-----------------|

Chorus

e|--------------------------------------------------|
B|--------------------------------------------------|
G|------3-------------------------------------------|
D|--0---3---3---------------------------------------|
A|--0---1---3---------------------------------------|
D|--0-------3---------------------------------------|
4th Time
e|--------------------------------------------------|
B|--------------------------------------------------|
G|------3-------------------------------------------|
D|--0---3---5---8---10------------------------------|
A|--0---1---5---8---10------------------------------|
D|--0-------5---8---10------------------------------|
  
2nd Verse

e|--------------------------------------------------|
B|--------------------------------------------------|
G|--------------------------------------------------|All palm muted except
D|-00--000--000--000--000--000--000-----------------|last three notes
A|-00--000--000--000--000--000--000-----------------|
D|-00--000--000--000--000--000--000--0-5/6\5--------|

e|--------------------------------------------------|
B|--------------------------------------------------|Muted except last three
G|--------------------------------------------------|notes
D|-00--000-----033-333----300-000-------------------|
A|-00--000x7---033-333----300-000---------6^--------|^ = Pinch
D|-00--000-----033-333x3--300-000x2--0-5/6----------|

e|--------------------------------------------------|
B|--------------------------------------------------|All muted except slide
G|--------------------------------------------------| 
D|-00--000-----033-333----300-000-----12\-----------|
A|-00--000x7---033-333----300-000-----12\-----------|
D|-00--000-----033-333x3--300-000x3---12\-----------|

e|----------------------------------|
B|----------------------------------|
G|----------------------------------|"You better make it right!"
D|-00-000-000-----------------------|
A|-00-000-000-----------------------|
D|-00-000-000-0 5/6\5---------------|

Repeat chorus

Solo:

e|--10--10-8----------------------------------------|
B|-----------10---10-10-8----8-10-10b11r10----------| 
G|------------------------10------------------------|
D|--------------------------------------------------|
A|--------------------------------------------------|
D|--------------------------------------------------|

e|--10-10-8-----------------------------------------|
B|----------10----8h10-10-----8h10-10b11r10---------| 
G|--------------10---------10-----------------------|
D|--------------------------------------------------|
A|--------------------------------------------------|
D|--------------------------------------------------|

e|--10----10-8--------------------------------------|
B|-------------10--10-10-8---8-10-10b11r10----------| 
G|------------------------10-------------------=----|
D|--------------------------------------------------|
A|--------------------------------------------------|
D|--------------------------------------------------|

e|--10--12--13b15r13----10--------------------------|
B|--------------------------------------------------| 
G|--------------------------------------------------|
D|--------------------------------------------------|
A|--------------------------------------------------|
D|--------------------------------------------------|

e|--10-10-8------------------10---------------------|
B|----------10---8h10-10--------11------------------| 
G|------------------------10------------------------|Repeat to fade out.
D|--------------------------------------------------|
A|--------------------------------------------------|
D|--------------------------------------------------|


Tap to rate this tab
# A B C D E F G H I J K L M N O P Q R S T U V W X Y Z