Song name
# A B C D E F G H I J K L M N O P Q R S T U V W X Y Z

All Insane Kids - Hero tab

-------------------------------------------------------------------------------
			     Hero - All Insane Kids
-------------------------------------------------------------------------------
Tabbed by: rapter90210
Email: rapter90210@gmail.com

Tuning: Drop D

Listen to the song for the timing

Intro      Let Ring
e|----------------------------------------------|
B|----------------------------------------------|
G|----------------------------------------------|
D|--1~~~~~~~~~~~~~~~~~~~~~~~~~~~~~~~~~~~~~~~~~~~|
A|----------------------------------------------|
D|----------------------------------------------|

Bass

Guitar
Verse 1
e|--x--x--x--x--x--x--x--x--x--|
B|--x--x--x--x--x--x--x--x--x--|
G|--x--x--x--x--x--x--x--x--x--|
D|--0--3--8--5--0--3--5--3--5--|
A|--0--3--8--5--0--3--5--3--5--|
D|--0--3--8--5--0--3--5--3--5--|

Introductory Solo
Repeat 4 times
e|--x--x--x--x--x--x--x--x--x--x--x--x--|
B|--x--x--x--x--x--x--x--x--x--x--x--x--|
G|--x--x--x--x--x--x--x--x--x--x--x--x--|
D|--0--0--3--0--3--0--0--3--5--6--6--6--|
A|--0--0--3--0--3--0--0--3--5--6--6--6--|
D|--0--0--3--0--3--0--0--3--5--6--6--6--|

Chorus
e|--x--x--x--x--x--x--x--x--x--x--x--x--x--x---|
B|--x--x--x--x--x--x--x--x--x--x--x--x--x--x---|
G|--x--x--x--x--x--x--x--x--x--x--x--x--x--x---|
D|--0--8--3--0--8--3--0--8--3--0--8--5--7--10--|
A|--0--8--3--0--8--3--0--8--3--0--8--5--7--10--|
D|--0--8--3--0--8--3--0--8--3--0--8--5--7--10--|

Pre-verse
e|--x--x--x--|                e|--x--x--x--|
B|--x--x--x--|                B|--x--x--x--|
G|--x--x--x--|                G|--x--x--x--|
D|--0--0--0--|repeat 7 times  D|--5--6--5--|
A|--0--0--0--|                A|--5--6--5--|
D|--0--0--0--|                D|--5--6--5--|


Verse 2				         Bridge
e|--x--x--x--x--x--24--x--x--x---x|	|--x--x--x--x--x--|
B|--x--x--x--x--x--24--x--x--x---x|	|--x--x--x--x--x--|
G|--x--x--x--x--x--24--x--x--x---x|	|--x--x--x--x--x--|
D|--0--3--0--3--5--24--0--3--0--/\|	|--0--3--5--6--5--|
A|--0--3--0--3--5--24--0--3--0--/\|	|--0--3--5--6--5--|
D|--0--3--0--3--5--24--0--3--0--/\|	|--0--3--5--6--5--|

Chorus
e|--x--x--x--x--x--x--x--x--x--x--x--x--x--x--x---|
B|--x--x--x--x--x--x--x--x--x--x--x--x--x--x--x---|
G|--x--x--x--x--x--x--x--x--x--x--x--x--x--x--x---|
D|--0--8--3--0--8--3--0--8--3--0--7--5--6--7--10--|
A|--0--8--3--0--8--3--0--8--3--0--7--5--6--7--10--|
D|--0--8--3--0--8--3--0--8--3--0--7--5--6--7--10--|

End Solo High E string
e|--10--10--10--8--5--5--3--1--3--5--6--5--|
B|-----------------------------------------|
G|-----------------------------------------|
D|-----------------------------------------|
A|-----------------------------------------|
D|-----------------------------------------|

e|--10--10--10--8--3--5--5--5--3--5--5--5b--5--|
B|---------------------------------------------|
G|---------------------------------------------|
D|---------------------------------------------|
A|---------------------------------------------|
D|---------------------------------------------|

e|--10--10--10--8--5--5--3--1--3--5--6--5--|
B|-----------------------------------------|
G|-----------------------------------------|
D|-----------------------------------------|
A|-----------------------------------------|
D|-----------------------------------------|

e|--10--12--13--14b--14br--13--8--|
B|--------------------------------|
G|--------------------------------|
D|--------------------------------|
A|--------------------------------|
D|--------------------------------|

e|--10--10--8--5--5--3--8--|
B|-------------------------|
G|-------------------------|
D|-------------------------|
A|-------------------------|
D|-------------------------|


************************************

| /   slide up
| \   slide down
| h   hammer-on
| p   pull-off
| ~   vibrato
| +   harmonic
| x   Mute note
| b   Bend
| pb  Pre-bend
| br  Bend release
| pbr Pre-bend release
| brb Bend release bend

************************************
Tap to rate this tab
 
# A B C D E F G H I J K L M N O P Q R S T U V W X Y Z