Song name
# A B C D E F G H I J K L M N O P Q R S T U V W X Y Z

All Time Low - Shameless tab

Help us improve GuitareTab! Take a short survey!
-------------------------------------------------------------------------------
			     SHAMELESS - The Fratellis
-------------------------------------------------------------------------------
Tabbed by: Mono
Email: bowdowntothemono@hotmail.co.uk

Only got this album today, but I thought I'd have a go at this song. Only the third on 
album, but it's sounding good!
There's two guitars here, Guitar 1 (Lead) and Guitar 2 (Rhythm). Play whichever one you 
Or you could try to do both.

Tuning: Standard (EADGBe)

Intro:
Guitar 1:
e|-------------------|
B|-------------------|
G|-------------------|
D|-------------------| x4
A|-------------------|
E|-0-0-4-5-6-7--6--5-|

Guitar 2:
e|-------------------|
B|-------------------|
G|-------------------|
D|-----------9~------| x4
A|-----------9~------|
E|-0-0-------7~------|

Verse:
The guitar parts alternate here, Guitar 2 first then Guitar 1.
Guitar 2:
e|--------------------|
B|--------------------|
G|-9-9-9-9---------9~-|
D|-9-9-9-9-9-9-9-9-9~-| x4
A|-7-7-7-7-9-9-9-9-7~-|
E|---------7-7-7-7----|

Guitar 1:
e|-----------------------------|
B|-----------------------------|
G|-----------------------------|
D|-----------------------------| x3
A|-----------------------------|
E|-0--4-5-6-5-4---0--4-5-6-5-4-|

The last time, Guitar 1's part changes slightly:
e|---------------------------|
B|---------------------------|
G|---------------------------|
D|-------------------------9-|
A|-------------------------9-|
E|-0--4-5-6-5-4---0--4-5-6-7-|

Pre-chorus:
Guitar 1 (listen to song for timing):
e|----------------------------------------------|
B|----------------------------------------------|
G|----11br-9-------11br-9-----------------------|
D|-----------11-----------9----11br-11-9--------|
A|----------------------------------------------|
E|----------------------------------------------|

Guitar 2:
e|--------------------------------|
B|--------------------------------|
G|-------7----------------9-------|
D|-7-----7-7------8-9-----9-9-----|
A|-7 x7 -5-7- x7 -8-9 x7 -7-9 x8 -|
E|-5-------5------6-7-------7-----|

Chorus:
Guitars 1 and 2:
e|---------------------------------------|
B|---------------------------------------|
G|----------------------------9999-------|
D|-2222-66-1010-1111-99-77-88-9999-9999--|
A|-2222-66-1010-1111-99-77-88-7777-9999--|
E|-0000-44-8-8--9-9--77-55-66------7777--|

Then:
Guitar 1 only:
e|----------------------|
B|----------------------|
G|----------------------|
D|----------------9999--|
A|----------5-6-7-9999--|
E|-0--4-5-6-------7777--|

Back to both guitars:
Guitars 1 and 2:
e|---------------------------------------|
B|---------------------------------------|
G|----------------------------9999-------|
D|-2222-66-1010-1111-99-77-88-9999-9999--|
A|-2222-66-1010-1111-99-77-88-7777-9999--|
E|-0000-44-8-8--9-9--77-55-66------7777--|

Then finally:
Guitar 1 only:
e|------------------------------|
B|------------------------------|
G|------------------------------|
D|-----------------------7--5---| x2
A|----------5-6-7-------------7-|
E|-0--4-5-6-------0--4-5--------|


Verse
Pre-chorus
Chorus (do final riff x4 instead of x2)

Bridge:
Guitar 1 (the timing is fairly random, listen to the song):
e|-------------------------------------------------------------7-----7-5-7-|
B|--------12-14-12--9~----17~------------------17-15-----------------------|
G|--------12-14-12--9~----------19h20p19h20----------16-13-7/8---7/8-------|
D|-------------------------------------------------------------------------|
A|-------------------------------------------------------------------------|
E|-------------------------------------------------------------------------|

Guitar 2 (clean until the last few chords at the end):
e|---------------------------------------------------------|
B|---------------------------------------------------------|
G|-------77----------------77------------------------------|
D|-22-55-77-77-2~----22-55-77-77-99~-99~-9-9-9-9-99999999--|
A|-22-55-55-77-2~----22-55-55-77-99~-99~-9-9-9-9-99999999--|
E|-00-33----55-0~----00-33----55-77~-77~-7-7-7-7-77777777--|

Last Chorus:
Guitars 1 and 2:
e|---------------------------------------|
B|---------------------------------------|
G|----------------------------9999-------|
D|-2222-66-1010-1111-99-77-88-9999-9999--|
A|-2222-66-1010-1111-99-77-88-7777-9999--|
E|-0000-44-8-8--9-9--77-55-66------7777--|

Both guitars still:
e|---------------|
B|---------------|
G|---------------|
D|-2222-9-7-6-4--|
A|-2222-9-7-6-4--|
E|-0000-7-5-4-2--|

e|---------------------------------------|
B|---------------------------------------|
G|----------------------------9999-------|
D|-2222-66-1010-1111-99-77-88-9999-9999--|
A|-2222-66-1010-1111-99-77-88-7777-9999--|
E|-0000-44-8-8--9-9--77-55-66------7777--|

e|---------------|
B|---------------|
G|---------------|
D|-2222-9-7-6-4--|
A|-2222-9-7-6-4--|
E|-0000-7-5-4-2--|

e|---------------------------------------|
B|---------------------------------------|
G|----------------------------9999-------|
D|-2222-66-1010-1111-99-77-88-9999-9999--|
A|-2222-66-1010-1111-99-77-88-7777-9999--|
E|-0000-44-8-8--9-9--77-55-66------7777--|

e|---------------|
B|---------------|
G|---------------|
D|-2222-9-7-6-4--|
A|-2222-9-7-6-4--|
E|-0000-7-5-4-2--|

e|-------------------------------------------------------------|
B|-------------------------------------------------------------|
G|----------------------------9~-------------------------------|
D|-2222-66-1010-1111-99-77-88-9~---9~---9-8-77777777\22222222~-|
A|-2222-66-1010-1111-99-77-88-7~---9~---9-8-77777777\22222222~-|
E|-0000-44-8-8--9-9--77-55-66------7~---7-6-55555555\00000000~-|

The end. Hopefully everything is there.

| /  slide up
| \  slide down
| h  hammer-on
| p  pull-off
| ~  vibrato
| +  harmonic
| x  Mute note
===============================================================================
Related for Shameless tab