Song name
# A B C D E F G H I J K L M N O P Q R S T U V W X Y Z

All Time Low - Girls A Straight Up Hustler tab

alright nobody has ears apparently. I have looked and looked for jacks part to this song 
the beginning. and so I listened and listened to bring you his part..... so without 
ado..................

right when alex starts singing jack plays this

e--7---7---7-------------------------------------------7-------7--------|
b----8---8---8--7--8--/10--8--7--8--/10--8--7--------8---8---8---8------|
g-----------------------------------------------8--9-------9--------7---|
d-----------------------------------------------------------------------|
a-----------------------------------------------------------------------|
e-----------------------------------------------------------------------|

e----10---------10------------------------------------------------------|
b--8----8----8-----8----------------------------------------------------|
g----------7------------------------------------------------------------|
d-----------------------------------------------------------------------|
a-----------------------------------------------------------------------|
e-----------------------------------------------------------------------|

 e--7---7---7-------------------------------------------7-------7---------|
b----8---8---8--7--8--/10--8--7--8--/10--8--7--------8---8---8---8--------|
g-----------------------------------------------8--9-------9--------7-----|
d-------------------------------------------------------------------------|
a-------------------------------------------------------------------------|
e-------------------------------------------------------------------------|

e----10---------10------------------------------------------------------|
b--8----8----8-----8----------------------------------------------------|
g----------7------------------------------------------------------------|
d-----------------------------------------------------------------------|
a-----------------------------------------------------------------------|
e-----------------------------------------------------------------------|

e--7---7---7-------------------------------------------7-------7------3-|
b----8---8---8--7--8--/10--8--7--8--/10--8--7--------8---8---8---8----3-|
g-----------------------------------------------8--9-------9----------0-|
d---------------------------------------------------------------------0-|
a-----------------------------------------------------------------------|
e-----------------------------------------------------------------------|

 this thing is awsome is it not? to me its accuraccy is flawless
Tap to rate this tab
# A B C D E F G H I J K L M N O P Q R S T U V W X Y Z