Song name
# A B C D E F G H I J K L M N O P Q R S T U V W X Y Z

All Time Low - Somewhere In Neverland tab

Artist: All Time Low
Song: Somewhere in Neverland 
Album: Don't Panic


Drop D Tuning 


*Palm Mute
/Slide
~Let Ring



Intro
e|-------------------------------------------------------------------|
B|-------------------------------------------------------------------|
G|--9-9--13-13--11-11--9--13-13--8--6-6--13-13--11-11--13/14/13--11--|
D|--9-9--13-13--11-11--9--13-13--8--6-6--13-13--11-11--13/14/13--11--|
A|--7-7--11-11--9--9---7--11-11--6--4-4--11-11--9--9---11/12/11--9---|
D|-------------------------------------------------------------------|

e|-----------------------------------------------------|
B|-----------------------------------------------------|
G|--9-9--13-13--11-11--9--13-13--8--6-6--13-13--11/9---|
D|--9-9--13-13--11-11--9--13-13--8--6-6--13-13--11/9---|
A|--7-7--11-11--9--9---7--11-11--6--4-4--11-11--9-/7---|
D|-----------------------------------------------------|



Verse
e|--------------------------------|
B|--------------------------------|
G|--------------------------------|
D|-2-------6-/-8-/--9-------------|
A|-2-[x6]--6-/-8-/--9-[x6]--------|
D|-2-------6-/-8-/--9-------------|
 *********************************
Say goodbye to the halls and the classes
[Tell me how you feel over and done with]

e|--------------------------------|
B|--------------------------------|
G|--6-----------------------------|
D|--6-------4-/-6-/--7------------|
A|--4-[x6]--4-/-6-/--7-[x6]-------|
D|----------4-/-6-/--7------------|
 *********************************
Say hello to a job and the taxes
[Like your life is a map with no compass]

e|--------------------------------|
B|--------------------------------|
G|--------------------------------|
D|-2-------6-/-8-/--9-------------|
A|-2-[x6]--6-/-8-/--9-[x6]--------|
D|-2-------6-/-8-/--9-------------|
 *********************************
The weekend with old friends
[To guide at the bar, drinking way to much]

e|--------------------------------|
B|--------------------------------|
G|--6-----------------------------|
D|--6-------4-/-6-/--7------------|
A|--4-[x6]--4-/-6-/--7-[x6]-------|
D|----------4-/-6-/--7------------|
 *********************************
Spilling into a 9 to 5 routine [Repeat]
[We sing along to 'Forever Young' ~let ring]

e|--------------------------------------------|
B|--------------------------------------------|
G|--------------------------------------------|
D|-----------------7~---------------X-X-X-----|
A|-----------------7~---------------X-X-X-----|
D|-----------------7~---------------X-X-X-----|
[So here we go again....Wishing we can start again]



Chorus
e|-------------------------------|
B|-------------------------------|
G|--9----------------------------|
D|--9-[x6]-6-/-8-/--9------------|
A|--7------6-/-8-/--9-[x6]-------|
D|---------6-/-8-/--9------------|
Wendy run away with me, I know I sound
[Lost boy, your last chance]
{Wendy we can get away, I promise if you're}
Lost boy, your last chance

e|-------------------------------|
B|-------------------------------|
G|--6----------------------------|
D|--6-[x6]-4-/-6-/--7------------|
A|--4------4-/-6-/--7-[x6]-------|
D|---------4-/-6-/--7------------|
Crazy, don't you see what you do to me I wanna be your [Repeat]
[A better reality, yeah xxx]
{with me say the words and I'll find a way, I can be your}
Your 'everything better' plan.. Oh [xxx]

Somewhere in Neverland

e|-----------------------------------------------------|
B|-----------------------------------------------------|
G|--9-9--13-13--11-11--9--13-13--8--6-6--13-13--11/9---|
D|--9-9--13-13--11-11--9--13-13--8--6-6--13-13--11/9---|
A|--7-7--11-11--9--9---7--11-11--6--4-4--11-11--9-/7---|
D|-----------------------------------------------------|



Verse
e|--------------------------------|
B|--------------------------------|
G|--------------------------------|
D|-2-------6-/-8-/--9-------------|
A|-2-[x6]--6-/-8-/--9-[x6]--------|
D|-2-------6-/-8-/--9-------------|
 *********************************
We'll start a life with the plain and the simple
[We'll talk about how your parents separated and]

e|--------------------------------|
B|--------------------------------|
G|--6-----------------------------|
D|--6-------4-/-6-/--7------------|
A|--4-[x6]--4-/-6-/--7-[x6]-------|
D|----------4-/-6-/--7------------|
 *********************************
Of great times and far better people
[how you don't want to make the same mistakes as them]

e|--------------------------------|
B|--------------------------------|
G|--------------------------------|
D|-2-------6-/-8-/--9-------------|
A|-2-[x6]--6-/-8-/--9-[x6]--------|
D|-2-------6-/-8-/--9-------------|
 *********************************
The weekend with our friends
[I'll say it's all about sticking it out]

e|--------------------------------|
B|--------------------------------|
G|--6-----------------------------|
D|--6-------4-/-6-/--7------------|
A|--4-[x6]--4-/-6-/--7-[xxx]------|
D|----------4-/-6-/--7------------|
 *********************************
Laughing about the wine that stains their teeth [Repeat]
[and trying to feel forever young ~let ring]

e|--------------------------------------------|
B|--------------------------------------------|
G|--------------------------------------------|
D|-----------------7~---------------X-X-X-----|
A|-----------------7~---------------X-X-X-----|
D|-----------------7~---------------X-X-X-----|
[So here we go again....Wishing we can start again]



Chorus
e|-------------------------------|
B|-------------------------------|
G|--9----------------------------|
D|--9-[x6]-6-/-8-/--9------------|
A|--7------6-/-8-/--9-[x6]-------|
D|---------6-/-8-/--9------------|
Wendy run away with me, I know I sound
[Lost boy, your last chance]
{Wendy we can get away, I promise if you're}
Lost boy, your last chance

e|-------------------------------|
B|-------------------------------|
G|--6----------------------------|
D|--6-[x6]-4-/-6-/--7------------|
A|--4------4-/-6-/--7-[x6]-------|
D|---------4-/-6-/--7------------|
Crazy, don't you see what you do to me I wanna be your [Repeat]
[A better reality, yeah xxx]
{with me say the words and I'll find a way, I can be your}
Your 'everything better' plan.. Oh [xxx]

Somewhere in Neverland



Bridge
(Instrumental part) ...Oohhhhh Oohhhhh Oohhhhh...
e|--------------------------------------------|
B|--------------------------------------------|
G|--------------------------------------------|
D|-----------------7~---------------X-X-X-----|
A|-----------------7~---------------X-X-X-----|
D|-----------------7~---------------X-X-X-----|
[So here we go again....Wishing we can start again]


Chorus
e|-------------------------------|
B|-------------------------------|
G|--9----------------------------|
D|--9-[x6]-6-/-8-/--9------------|
A|--7------6-/-8-/--9-[x6]-------|
D|---------6-/-8-/--9------------|
Wendy run away with me, I know I sound
[{{PAUSE}}Lost boy, your last chance]
{Wendy we can get away, I promise if you're}
Lost boy, your last chance

e|-------------------------------|
B|-------------------------------|
G|--6----------------------------|
D|--6-[x6]-4-/-6-/--7------------|
A|--4------4-/-6-/--7-[x6]-------|
D|---------4-/-6-/--7------------|
Crazy, don't you see what you do to me I wanna be your [Repeat]
[A better reality, yeah xxx]
{with me say the words and I'll find a way, I can be your}
Your 'everything better' plan.. Oh [xxx]

Somewhere in Neverland



Outro
e|-------------------------------------------------------------------|
B|-------------------------------------------------------------------|
G|--9-9--13-13--11-11--9--13-13--8--6-6--13-13--11-11--13/14/13--11--|
D|--9-9--13-13--11-11--9--13-13--8--6-6--13-13--11-11--13/14/13--11--|
A|--7-7--11-11--9--9---7--11-11--6--4-4--11-11--9--9---11/12/11--9---|
D|-------------------------------------------------------------------|
Somewhere in Neverland
e|-----------------------------------------------------|
B|-----------------------------------------------------|
G|--9-9--13-13--11-11--9--13-13--8--6-6--13-13--11/9---|
D|--9-9--13-13--11-11--9--13-13--8--6-6--13-13--11/9---|
A|--7-7--11-11--9--9---7--11-11--6--4-4--11-11--9-/7---|
D|-----------------------------------------------------|







Tabbed by: xkrazieGx
If something sounds different, let me know so I can correct it.
Tap to rate this tab
# A B C D E F G H I J K L M N O P Q R S T U V W X Y Z