Song name
# A B C D E F G H I J K L M N O P Q R S T U V W X Y Z

All Time Low - Six Feet Under The Stars tab

Tab: Mark Ragunton
Email: markyroboto@gmail.com
Myspace: myspace.com/markyroboto

Band: All Time Low
Album: So Wrong, It's Right
Guitar One Tuning: Half-Step Down
Guitar Two Tuning: Standard

INTRO/VERSE

Guitar One
E|-------------------------------------------------------------|
B|-------------------------------------------------------------|
G|--999999999999999999999999999--999999999999--22222222222222--|
D|--999999999999999999999999999--999999999999--22222222222222--| x1
A|--777777777777777777777777777--666666666666--00000000000000--|
E|-------------------------------------------------------------|

Guitar Two
E|--------------3--------------1----------------|
B|---------4--------------4---------------------|
G|----3--------------3--------------------------|
D|----------------------------------66666666----| x1
A|----------------------------------66666666----|
E|----------------------------------44444444----|

Guitar One
E|-------------------------------------------------|
B|-------------------------------------------------|
G|--99999999999999999999999999999--22222222222222--|
D|--99999999999999999999999999999--22222222222222--| x1
A|--77777777777777777777777777777--00000000000000--|
E|-------------------------------------------------|

Guitar Two
E|---------------------------------------------------|
B|---------------------------------------------------|
G|----888888888888888888888888888--------------------| x1
D|----888888888888888888888888888--66666666666666----|
A|----666666666666666666666666666--66666666666666----|
E|---------------------------------44444444444444----|

PRE-CHORUS

Guitar One
E|--------|
B|--------|
G|--6--2--| x1
D|--6--2--|
A|--4--0--|
E|--------|

Guitar Two
E|--------|
B|--------|
G|--5--3--| x1
D|--5--3--|
A|--3--1--|
E|--------|


CHORUS: FIRST

E|--------------------------------------------------|
B|--------------------------------------------------|
G|--99999999999--2222222222--666666--444444--22222--|
D|--99999999999--2222222222--666666--444444--22222--| x2
A|--77777777777--0000000000--444444--222222--00000--|
E|--------------------------------------------------|

Guitar Two
E|--------------------|
B|--------------------|
G|----8/10\8----------|
D|----x/x-\x----------| (Repeat Until End Of Chorus)
A|----6/8-\6----------|
E|--------------------|

Guitar One
E|-----
B|-----
G|--9-- (Let Ring)
D|--9--
A|--7--
E|-----

Guitar Two

E|-------------------1---1---------|
B|---4---4---4---4-----------3---3-|
G|-3---3---3---3---3---3---3---3---| x2
D|---------------------------------|
A|---------------------------------|
E|---------------------------------|

VERSE: SECOND

Guitar One
E|----------------------------------------------------|
B|----------------------------------------------------|
G|--999999--9999999--2222222222222--666--444--222-----|
D|--999999--9999999--2222222222222--666--222--222-----| x1
A|--777777--6666666--0000000000000--444--222--000-----|
E|----------------------------------------------------|


CHORUS: SECOND

Guitar One
E|--------------------------------------------------|
B|--------------------------------------------------|
G|--99999999999--2222222222--666666--444444--22222--|
D|--99999999999--2222222222--666666--444444--22222--| x2
A|--77777777777--0000000000--444444--222222--00000--|
E|--------------------------------------------------|

Guitar Two
E|--------------------|
B|--------------------|
G|----8/10\8----------|
D|----x/x-\x----------| (Repeat Until End Of Chorus)
A|----6/8-\6----------|
E|--------------------|


BRIDGE

E|----------------------------------|
B|----------------------------------|
G|--666666--222222--111111--444444--|
D|--666666--222222--222222--444444--| x2
A|--444444--000000--222222--222222--|
E|----------------------------------|


POST-CHORUS

Guitar One
E|--------------------------------------------------|
B|--------------------------------------------------|
G|--99999999999--2222222222--666666--444444--22222--|
D|--99999999999--2222222222--666666--444444--22222--| x1
A|--77777777777--0000000000--444444--222222--00000--|
E|--------------------------------------------------|

Guitar Two
E|--------------------|
B|--------------------|
G|---15---12---10-----| x4
D|--------------------|
A|--------------------|
E|--------------------|

CHORUS: LAST

Guitar One
E|--------------------------------------------------|
B|--------------------------------------------------|
G|--99999999999--2222222222--666666--444444--22222--|
D|--99999999999--2222222222--666666--444444--22222--| x2
A|--77777777777--0000000000--444444--222222--00000--|
E|--------------------------------------------------|


Guitar Two
E|--------------------|
B|--------------------|
G|----8/10\8----------|
D|----x/x-\x----------| (Repeat Until End Of Chorus)
A|----6/8-\6----------|
E|--------------------|

Guitar One
E|-----------|
B|-----------|
G|--2--4--9--|
D|--2--4--9--| (Let Ring)
A|--0--2--7--|
E|-----------|
Tap to rate this tab
 
# A B C D E F G H I J K L M N O P Q R S T U V W X Y Z