Song name
# A B C D E F G H I J K L M N O P Q R S T U V W X Y Z

All Time Low - Six Feet Under The Stars Acoustic tab

----------------------------------------------------------------------------

All Time Low - Six Feet Under the Stars Acoustic

----------------------------------------------------------------------------
Tabbed by: rockerkyle13
Email: rockerkyle13@yahoo.com

Tuning: half-step down

hey guys, im not sure about the strumming in some parts of the song so if

im wrong please correct me. Other than that, hope you guys enjoy it.

(all the symbols go to the line above it)
e|---------------------------------|
B|-0---------------0----------000-|
G|-9---------------8----------889-|
D|-9---------------9-----------999-|
A|7---------------7------------777-|
E|---------------------------------|

e|00000000000000000000000000000000-|
B|00000000000000000000000000000000-|
G|22222222222222222222222222222222-|
D|22222222222222222222222222222222-|
A|00000000000000000000000000000000-|
E|---------------------------------|
    <   <   <   <   <   <   <   <
e|---------------------------------|
B|-0---------------0----------000-|
G|-9---------------8----------889-|
D|-9---------------9-----------999-|
A|7---------------7------------777-|
E|---------------------------------|

e|00000000000000000000000000000000-|
B|00000000000000000000000000000000-|
G|22222222222222222222222222222222-|
D|22222222222222222222222222222222-|
A|00000000000000000000000000000000-|
E|---------------------------------|
    <   <   <   <   <   <   <   <
e|0------------0000-------0-------|
B|0------------0000-------0-------|
G|7------------7772-------2-------|
D|7------------7772-------2-------|
A|5------------5550-------0-------|
E|--------------------------------|
                          X
e|0-000000-00-0000-00-0000-00-0000-00-0000-00-0000-00-0000-00-000-|
B|0-00-0000-00-0000-00-0000-00-0000-00-0000-00-0000-00-0000-00-000-|
G|9-99-9999-99-9992-22-2222-22-2225-55-5557-77-7772-22-2222-22-222-|
D|9-99-9999-99-9992-222222-22-2225-55-5557-77-7772-22-2222-22-222-|
A|7-77-7777-77-7770-00-0000-00-0003-33-3335-55-5550-00-0000-00-000-|
E|-----------------------------------------------------------------|
not sure about strumming pattern
e|0-000000-00-0000-00-0000-00-0000-00-0000-00-0000-00-0000-|
B|0-00-0000-00-0000-00-0000-00-0000-00-0000-00-0000-00-0000-|
G|9-99-9999-99-9992-22-2222-22-2225-55-5557-77-7772-22-2222-|
D|9-99-9999-99-9992-222222-22-2225-55-5557-77-7772-22-2222-|
A|7-77-7777-77-7770-00-0000-00-0003-33-3335-55-5550-00-0000-|
E|----------------------------------------------------------|

e|---------------------------------|
B|-0---------------0----------000-|
G|-9---------------8----------889-|
D|-9---------------9-----------999-|
A|7---------------7------------777-|
E|---------------------------------|

e|0---------------0--------------0---------------0---------------------------|
B|0---------------0--------------0---------------0---------------------------|
G|9---------------2--------------9---------------2---------------------------|
D|9---------------2--------------9---------------2---------------------------|
A|7---------------0--------------7---------------0---------------------------|
E|---------------------------------------------------------------------------|
you are going to have to figure out strumming pattern on your own
e|0-----000----0000----0000-------|
B|0-----000----0000----0000-------|
G|7-----775----5552----2222-------|
D|7-----775----5552----2222-------|
A|5-----553----3330----0000-------|
E|--------------------------------|
                          >
e|0-000000-00-0000-00-0000-00-0000-00-0000-00-0000-00-0000-00-000-|
B|0-00-0000-00-0000-00-0000-00-0000-00-0000-00-0000-00-0000-00-000-|
G|9-99-9999-99-9992-22-2222-22-2225-55-5557-77-7772-22-2222-22-222-|
D|9-99-9999-99-9992-222222-22-2225-55-5557-77-7772-22-2222-22-222-|
A|7-77-7777-77-7770-00-0000-00-0003-33-3335-55-5550-00-0000-00-000-|
E|-----------------------------------------------------------------|

e|0-000000-00-0000-00-0000-00-0000-00-0000-00-0000-00-0000-|
B|0-00-0000-00-0000-00-0000-00-0000-00-0000-00-0000-00-0000-|
G|9-99-9999-99-9992-22-2222-22-2225-55-5557-77-7772-22-2222-|
D|9-99-9999-99-9992-222222-22-2225-55-5557-77-7772-22-2222-|
A|7-77-7777-77-7770-00-0000-00-0003-33-3335-55-5550-00-0000-|
E|----------------------------------------------------------|

e|0000000000000000000000000000000000000000000000000000000000000000-|
B|0000000000000000000000000000000000000000000000000000000000000000-|
G|7777777777777777222222222222222299999999999999995555555555555555-|
D|7777777777777777222222222222222299999999999999995555555555555555-|
A|5555555555555555000000000000000077777777777777773333333333333333-|
E|-----------------------------------------------------------------|

e|0000000000000000000000000000000000000000000000000000000000000000-|
B|0000000000000000000000000000000000000000000000000000000000000000-|
G|7777777777777777222222222222222299999999999999995555555555555555-|
D|7777777777777777222222222222222299999999999999995555555555555555-|
A|5555555555555555000000000000000077777777777777773333333333333333-|
E|-----------------------------------------------------------------|
    X     X X     X X     X X     X X     X X     X X     X X
e|0---------------0-------0-----000-----000---000---------------------------|
B|0---------------0-------0-----000-----000--000---------------------------|
G|9---------------2-------------225-----557---772---------------------------|
D|9---------------2-------------225-----557---772---------------------------|
A|7---------------0-------------003-----335---550---------------------------|
E|---------------------------------------------------------------------------|

e|0-000000-00-0000-00-0000-00-0000-00-0000-00-0000-00-0000-00-000-|
B|0-00-0000-00-0000-00-0000-00-0000-00-0000-00-0000-00-0000-00-000-|
G|9-99-9999-99-9992-22-2222-22-2225-55-5557-77-7772-22-2222-22-222-|
D|9-99-9999-99-9992-222222-22-2225-55-5557-77-7772-22-2222-22-222-|
A|7-77-7777-77-7770-00-0000-00-0003-33-3335-55-5550-00-0000-00-000-|
E|-----------------------------------------------------------------|
not sure about strumming pattern
e|0--0--00-0-0-000--0--00-0-0-000--0--00-0-0-000--0--00-0-0-00-------------|
B|0--0--00-0-0-000--0--00-0-0-000--0--00-0-0-000---0--00-0-0-00-------------|
G|9--9--99-9-9-999--9--99-9-9-992--2--22-2-2-222--2--22-2-2-22-------------|
D|9---9--99-9-9-999---9--99-9-9-992--2--22-2-2-222--2--22-2-2-22-------------|
A|7---7--77-7-7-777---7--77-7-7-770---0--00-0-0-000---0--00-0-0-00-------------|
E|-----------------------------------------------------------------------------|

e|0--0--00-0-0-000--0--00-0-0-000--0--00-0-0-00----|
B|0--0--00-0-0-000--0--00-0-0-000--0--00-0-0-00----|
G|5--5--55-5-5-557--7--77-7-7-772--2--22-2-2-22----|
D|5--5-55-5-5-557---7--77-7-7-770---0--00-0-0-00----|
A|3--3--33-3-3-335--5--55-5-5-550---0--00-0-0-00----|
E|----------------------------------------------------|

e|0--0---0-|
B|0--0---0-|
G|2-5--9-|
D|2--5---9-|
A|0--3---7-|
E|----------|

| x  Mute note
| >  Cut Off Note
| <   Accent note
==============================================================================
Tap to rate this tab
# A B C D E F G H I J K L M N O P Q R S T U V W X Y Z