Allister - Runaway tab

New song by Allister from their 2010 album "Countdown To Nowhere"

It's not a very hard song, just the switching part of the chorus is hard. Good luck! :D

Piano sounding part
E|-------------------------------|
B|----17-------------------------|
G|-15----15-16-15-13-11-13-11----|   x4
D|-------------------------------|
A|-------------------------------|
E|-------------------------------|

Guitars 1&2 intro
E|---------------------------------------------------------------------|
B|---------------------------------------------------------------------|
G|------------------6666666666666666-8888888888888888-6666666666666666-|
D|-4444444444444444-6666666666666666-8888888888888888-6666666666666666-|
A|-4444444444444444-4444444444444444-6666666666666666-4444444444444444-|
E|-2222222222222222----------------------------------------------------|

Verse
E|------------------------------------------------------|
B|--first two times-------------second two times--------|
G|----6~-8~-6~---------------66666666-88888888-66666666-|
D|-4~-6~-8~-6~------44444444-66666666-88888888-66666666-|
A|-4~-4~-6~-4~------44444444-44444444-66666666-44444444-|
E|-2~---------------22222222----------------------------|

pre-chorus
E|----------|
B|----------|
G|----6~-6--|
D|-4~-6~-6--|
A|-4~-4~-4--|
E|-2~-------|

Chorus
E|-----------------------------------------------------------------------|
B|-----------------------------------------------------------------------|
G|------------------4444444444444444-88888888----------44444444-66666666-| x2
D|-4444444444444444-4444444444444444-88888888-66666666-44444444-66666666-|
A|-4444444444444444-2222222222222222-66666666-66666666-22222222-44444444-|
E|-2222222222222222---------------------------44444444-------------------|

Bridge
E|-------------------------------------------------------------------------------------------|
B|-------------------------------------------------------------------------------------------|
G|-------66666666-88888888-44444444------------------------4444444444444444-6666666666666666-|
D|-4-4-4-66666666-88888888-44444444-4-4-4-4444444444444444-4444444444444444-6666666666666666-|
A|-4-4-4-44444444-66666666-22222222-4-4-4-4444444444444444-2222222222222222-4444444444444444-|
E|-2-2-2----------------------------2-2-2-2222222222222222-----------------------------------|

The chorus after the bridge for the first two measures has a delay of
E|------|
B|------|
G|------|
D|-4~-6~|
A|-4~-6~|
E|-2~-4~|

The last chorus changes up a little bit, instead of the usual chorus, play this
E|---------------------------------------------------------------------|
B|---------------------------------------------------------------------|
G|------------------4444444444444444-8888888888888888-6666666666666666-|
D|-4444444444444444-4444444444444444-8888888888888888-6666666666666666-|
A|-4444444444444444-2222222222222222-6666666666666666-4444444444444444-|
E|-2222222222222222----------------------------------------------------|

End on
E|---|
B|---|
G|---|
D|-4~|
A|-4~|
E|-2~|

You could also play the piano part until it fades out.

Well that's it! Happy Playing :D
Tap to rate this tab
 
# A B C D E F G H I J K L M N O P Q R S T U V W X Y Z