Song name
# A B C D E F G H I J K L M N O P Q R S T U V W X Y Z

Allister - The One That Got Away tab

Allister - The One that Got Away
By:Andrew Mcshan

Verse
e|-----------------------------------------------------------------------|
B|-----------------------------------------------------------------------|
G|----------7------9---------7---9-----------7--------9------------------|
D|--7-------7------9----7----7---9------4----7----4---9------------------|
A|--7-------5------7----7----5---7------4----5----4---7------------------|
E|--5-------------------5---------------2---------2----------------------|

Chorus
e|-----------------------------------------------------------------------|
B|-----------------------------------------------------------------------|
G|--7---9---------------7---9---------6-7-9--------9-7-6-----------------|
D|--7---9-----7-6-4-4---7---9------7--6-7-9--------x-x-x-----------------|
A|--5---7-----7-6-4-4---5---7------7--4-5-7--------7-5-4-----------------|
E|------------5-4-2-2--------------5-------------------------------------|

Bridge
e|-----------------------------------------------------------------------|
B|-----------------------------------------------------------------------|
G|-----6-7------------6--7-------------7----9----------------------------|
D|-4---6-7----7---4---6--7---7---------7----9----------------------------|
A|-4---4-5----7---4---4--5---7---------5----7----------------------------|
E|-2----------5---2----------5-------------------------------------------|
Tap to rate this tab
 
# A B C D E F G H I J K L M N O P Q R S T U V W X Y Z