Song name
# A B C D E F G H I J K L M N O P Q R S T U V W X Y Z

Almendra - Color Humano tab

Intro

e---8h9--8--8h9--7-   --7--7--7/2--|
b------------------   -------------|
g------------------ X4-------------|
d------------------   -------------|
a------------------   -------------|
E------------------   -------------|

Bm - E - F# - C

-------------------------------------|
------------------12-----------------|
-------------12V------14--12---------|
---12v--14v-------------------14p12--|
-------------------------------------|
-------------------------------------|

-----------------------------------------   -------------------------|
----------------------12-----------------   -------------------------|
-----------------12v------14--12---------   ----------------12vvv/0--|
---9v--12v--14v-------------------14p12-- X3--9v--12v--14v-----------|
-----------------------------------------   -------------------------|
-----------------------------------------   -------------------------|

Bm   E
       Beso mares
F#   C         Bm
       de algodón
     E
       sin mareas
F#   C         Bm
       suaves son
     E       F#   C
       sublimándonos,

Bm   E       F#    C
       despertándonos.



Bm   E
       Beso mares
F#   C         Bm
       de algodón
     E
       sin mareas
F#   C         Bm
       suaves son
     E       F#   C
       sublimándonos,

Bm     E       F#    C
despertándonos.


F#m            Cmaj7
Somos seres humanos
E                   A
sin saber lo que es hoy
          C#m A:577655
un ser huma---no.

Em:x79987 - C#m - A
Em        - C#m - Cm


Vida y sangre sin ardor
no hace falta, hay calor,
no miremos hoy, descansemos hoy.


Vemos todos colores
sin saber lo que es hoy un color.
Tap to rate this tab
 
# A B C D E F G H I J K L M N O P Q R S T U V W X Y Z