Alpha Rev - New Morning tab

this is my first tab.
listen to the song to get struming pattern

intro-verse1
E---------------------------------------------------------------------------|
B---------------------------------------------------------------------------|
G--1-1-1--------------------------------------------------------------------|
D--2-2-2---/4-4-4---4-4-4--x2-----------------------------------------------|
A--2-2-2---/4-4-4---0-0-0---------------------------------------------------|
E---------------------------------------------------------------------------|

chorus-
E---------------------------------------------------------------------------|
B-2-2-2------5-5-5----------------------------------------------------------|
G-2-2-2--4---6-6-6---4-4-4---1-1-1------------------------------------------|
D-2-2-2--4---6-6-6---4-4-4---2-2-2------------------------------------------|
A--------2---4-4-4---2-2-2---2-2-2------------------------------------------|
E---------------------------------------------------------------------------|

E---------------------------------------------------------------------------|
B-2-2-2------5-5-5----------------------------------------------------------|
G-2-2-2--4---6-6-6---4-4-4--------------------------------------------------|
D-2-2-2--4---6-6-6---4-4-4--------------------------------------------------|
A--------2---4-4-4---2-2-2--------------------------------------------------|
E---------------------------------------------------------------------------|

E---------------------------------------------------------------------------|
B---------------------------------------------------------------------------|
G--1-1-1--------------------------------------------------------------------|
D--2-2-2---/4-4-4---4-4-4--x2-----------------------------------------------|
A--2-2-2---/4-4-4---0-0-0---------------------------------------------------|
E---------------------------------------------------------------------------|

verse2
E---------------------------------------------------------------------------|
B------------5-5-5----------------------------------------------------------|
G-1-1-1--4---6-6-6---4---1-1-1----------------------------------------------|
D-2-2-2--4---6-6-6---4---2-2-2----------------------------------------------|
A-2-2-2--2---4-4-4---2---2-2-2----------------------------------------------|
E---------------------------------------------------------------------------|

outro
E---------------------------------------------------------------------------|
B---------------------------------------------------------------------------|
G--1-1-1--------------------------------------------------------------------|
D--2-2-2---/4-4-4---4-4-4--x2-----------------------------------------------|
A--2-2-2---/4-4-4---0-0-0---------------------------------------------------|
E---------------------------------------------------------------------------|
there you go.
Tap to rate this tab
 
# A B C D E F G H I J K L M N O P Q R S T U V W X Y Z