Song name
# A B C D E F G H I J K L M N O P Q R S T U V W X Y Z

Alt-j - Dissolve Me tab

This is a pretty easy song, and well, this is the keyboard part that is in almost the entire song.


e-------------------------------------------------------------------------|
B-------------------------------------------------------------------------|
G--9----------------------------------------------------------------------|
D-----12-16-16-16-16---14-14--12--12-12-14--12-12-------------------------|
A-------------------------------------------------------------------------|
E-------------------------------------------------------------------------|

e-------------------------------------------------------------------------|
B-------------------------------------------------------------------------|
G-------------------------------------------------------------------------|
D--16-16-16-16---14-14--(12)--(12)-(12)-(14)--(12)-(12)-------------------|
A-------------------------------------------------------------------------|
E-------------------------------------------------------------------------|

Repeat this in almost all the song.

This part below is when it says "I am see-through, soap sliver you're so thin"
e--------------------------------------------------------------------------|
B-15-19-19-19-19---17-17--15-15-15-17--15-15-------------------------------|
G--------------------------------------------------------------------------|
D--------------------------------------------------------------------------|
A--------------------------------------------------------------------------|
E--------------------------------------------------------------------------|

After you repeat this 2x you're gonna go back to the intro.

Key:

h= hammer-on
p= pull-off
b= bend
rb= release bend
()= palm mute
t= tap
// = tremolo
*= natural harmonic
'= artificial harmonic
x= mute note

This is my first tab so, hope it's helpful for you. :)
Tap to rate this tab
# A B C D E F G H I J K L M N O P Q R S T U V W X Y Z