Song name
# A B C D E F G H I J K L M N O P Q R S T U V W X Y Z

Alt-j - Tessellate tab

Hey,

This is the way I play this song

Look my cover please ! http://www.youtube.com/watch?v=HkzvNkIuy4w


Standard Tuning

Intro:
E--------------------|
B------0-------------|
G------0-------------|    x4
D------2-------------|
A------2-------------|
E--------------------|

Verse : Em - D sus2



E--------------------------------0--------------------------------------------|
B---------------0----------3--------3-----------------------------------------|
G-------0---------0-----------2--------2--------------------------------------|
D-----------2--------2-0------------------------------------------------------|
A----2------------------------------------------------------------------------|
E-----------------------------------------------------------------------------|

Bridge :

" Go alone my flower ... Keep us on my heart "

Em - D sus 2 : one strum

Chorus :

Em - G - A ( In bar chords look my cover )


Cheers ,

Hope it will help you,

Aurélien

mail : aureliensanchez@hotmail.fr
youtube : http://www.youtube.com/user/monkeysgibson?feature=watch
Tap to rate this tab
# A B C D E F G H I J K L M N O P Q R S T U V W X Y Z