Song name
# A B C D E F G H I J K L M N O P Q R S T U V W X Y Z

Alt-j - Buffalo tab

BUFFALO
Alt-J

Tuning: Open D (DADF#Ad)
Capo: 0

I'm working on the bridge & the rest of the song at the moment so I'll update this as I go but here is 
the intro and verse! If you have any corrections or suggestions, or if you know the tab for the rest of 
the song, please comment below!

This is not the way that the band play it, but it sounds exactly the same, and I think it's easier than 
what they do too. They also use two guitars, this is the version if you are playing with just one.


INTRO
e|------7----7----7----7-----10----10----9-----9---|
B|-----0----0----0----0-----0-----0-----0-----0----|
G|-------------------------------------------------|
D|----7----7----7----7----10----10-----9-----9-----|
A|---8----8----7----7----10----10----10----10------|
E|-------------------------------------------------|
X6

VERSE
e|----7-----7-----7-----7-----5-----0-----5-----0-----|
B|-----0-----0-----0-----0-----0-----0-----0-----0----|
G|------7-----7-----7-----7-----5-----5-----5-----5---|
D|---7-----7-----7-----7-----5-----5-----5-----5------|
A|----------------------------------------------------|
E|----------------------------------------------------|

e|----3-----3-----2-----2-----0-----0-----0-----0-----|
B|-----3-----3-----2-----2-----0-----0-----0-----0----|
G|------3-----3-----2-----2-----0-----0-----0-----0---|
D|---3-----3-----2-----2-----0-----0-----0-----0------|
A|----------------------------------------------------|
E|----------------------------------------------------|
X2

BRIDGE
e|----3-----3-----7-----7-----|
B|-----3-----3-----7-----7----|
G|------3-----3-----7-----7---|
D|---3-----3-----7-----7------|
A|----------------------------|
E|----------------------------|
Tap to rate this tab
# A B C D E F G H I J K L M N O P Q R S T U V W X Y Z