Song name
# A B C D E F G H I J K L M N O P Q R S T U V W X Y Z

Alt-j - Interlude 2 tab

-------------------------------------------------------------------------------
                             (Interlude 2)  Alt-J
-------------------------------------------------------------------------------
Tabbed by: Clowesy              
E-mail:eleanorclowes@hotmail.com

Tuning:DADF#AD
Part 1:
D|-----------0-------2-------0-----------------------------------------------|
A|---0--7/-9---0-------0-------0---------------------------------------------|
F#|---0----------0-------0-------0-------------------------------------------|
D|---------------------------------------------------------------------------|
A|---------------------------------------------------------------------------|
D|0----------------4-------2-------------------------------------------------|
Play twice

Part 2:
D|-----------0-------0-------0-----------------------------------------------|
A|--0---10h9---0-------0-------0---------------------------------------------|
F#|---0----------0-------0-------0-------------------------------------------|
D|---------------------------------------------------------------------------|
A|---------------------------------------------------------------------------|
D|0----------------4-------2-------------------------------------------------|

Part 3:
D|-----------0-------2-------0-----------------------------------------------|
A|---0--7/-9---0-------0-------0---------------------------------------------|
F#|---0----------0-------0-------0-------------------------------------------|
D|---------------------------------------------------------------------------|
A|---------------------------------------------------------------------------|
D|0----------------4-------2-------------------------------------------------|

Part 4:
D|------12h11-0-------0-------0----------------------------------------------|
A|--0-----------0-------0-------0--------------------------------------------|
F#|---0-----------0-------0-------0------------------------------------------|
D|---------------------------------------------------------------------------|
A|0-------------------------0------------------------------------------------|
D|------------------9--------------------------------------------------------|
Play twice

Part 5:
D|--0--------0-------0-----0---------0-----0---------------------------------|
A|----0--------0-------0-----0---------0-----0-------------------------------|
F#|----0---------0-------0---------------0-----------------------------------|
D|0-----2/-4-----------------------------------------------------------------|
A|-----------------5-----------0h2-------------0h2---------------------------|
D|---------------------------------2-----------------------------------------|

Play all through again but part 5 changes slightly at the end:

D|--0--------0-------0-----0---------0-----0---------------------------------|
A|----0--------0-------0-----0---------0-----0-------------------------------|
F#|----0---------0-------0---------------0-----------------------------------|
D|0-----2/-4-----------------------------------------------------------------|
A|-----------------5-----------0h2-------------0h2/5-------------------------|
D|---------------------------------2-----------------0-----------------------|

************************************

| /   slide up
| \   slide down
| h   hammer-on
| p   pull-off
| ~   vibrato
| +   harmonic
| x   Mute note
| b   Bend
| pb  Pre-bend
| br  Bend release
| pbr Pre-bend release
| brb Bend release bend

************************************
Tap to rate this tab
# A B C D E F G H I J K L M N O P Q R S T U V W X Y Z