Song name
# A B C D E F G H I J K L M N O P Q R S T U V W X Y Z

Alter Bridge - This Is The End tab

i couldnt find out the verse (too lazy)

Capo Fret 1, standard tuning

figure out how many times u play each note
E|-4----3---|
B|--------4-|
G|----------|
D|----------|
A|----------|
E|----------|

The chords after are

E|-3--3--3--3-|
B|-3--3--3--3-|
G|-0--0--0--2-|
D|-2--2--0--0-|
A|-2--3--2--x-|
E|-x--x--3--x-|

these are the same for the chorus

note: for the Dsus4 at the end of the chord progression you can just play D and it'll 
pretty much the same

hope this helped!
Tap to rate this tab
# A B C D E F G H I J K L M N O P Q R S T U V W X Y Z